Guitaretab - guitar tabs
Song name
# A B C D E F G H I J K L M N O P Q R S T U V W X Y Z

Kamikazee - Huli Ka Balbon tab

My Favorite song...ahahah

Huli ka balbon-Kamikazee


GtrI
|----------------|------------------|----------------|---------------|
|---------0------|-----------0------|---------0------|--------0------|
|-----5----5---0-|-------7----7--7--|-3/55--5---5--0-|-55---5---5--0-|
|-5/77--7----7---|--3/55---5----5---|------5-----5---|----5-------5--|2x
|----------------|------------------|----------------|---------------|
|----------------|------------------|----------------|---------------|

[ Tab from: http://www.guitaretab.com/k/kamikazee/186029.html ]
then
GtrI
 Sorry...  kung ako ay....             bulbulen...bulbulen ..bulbulen...
|----------------|------------------|----------------|---------------|
|---------0------|-----------0------|---------0------|--------0------|
|-----5----5---0-|-------7----7--7--|-3/55--5---5--0-|-55---5---5--0-|
|-5/77--7----7---|--3/55---5----5---|------5-----5---|----5-------5--|2x
|----------------|------------------|----------------|---------------|
|----------------|------------------|----------------|---------------|
GtrII
|-----------10~---------------------------------------------------|
|--8~--8~-----------------8~---8~---------8~--8~-------8~---------|
|--7~---------------------7~--------------7~-----------7~---------|
|-----------------------------------------------------------------|
|-----------------------------------------------------------------|
|-----------------------------------------------------------------|


Bulbol... :)

Related for Huli Ka Balbon tab
Advertisement will be closed in 10 seconds