Guitaretab - guitar tabs
Song name
# A B C D E F G H I J K L M N O P Q R S T U V W X Y Z
Home / K / Kamikazee / 420 tab

Kamikazee - 420 tab

4:20 by Kamikazee

09283150081(jomal)

Intro-
GtrI
|--------------------------------------------------------------|
|--------------------------------------------------------------|
|-------------99--------------------------99-------------------|
|-99--66--77--99--------------99--66--77--99-------------------|4x
|-77--77--77--77--------------77--77--77--77-------------------|
|--------------------------------------------------------------|

Bass
|-----------88-99--------88-99-------88-99-------8-------------|
|---------99----------99-----------99---------99---------------|
|-19/--77----------77-----------77---------77------------------|
|--------------------------------------------------------------|

GtrI
|------------------------------------------------------------------------|
|------------------------------------------------------------------------|
|--9999999999999999-6666666666666666-8888888888888888-666666666666666666-|
|--9999999999999999-7777777777777777-9999999999999999-777777777777777777-|
|--7777777777777777-7777777777777777-9999999999999999-777777777777777777-|
|-------------------5555555555555555-7777777777777777-555555555555555555-|
GtrII
|--------------------------------------------------------|
|--9---10-9-12--9---10-9-12--9---10-9-12--9---10-9-12----|
|-9---9--------9--9---------9---9--------9---9-----------|
|--------------------------------------------------------|
|--------------------------------------------------------|
|--------------------------------------------------------|

|-------------12--------------------12-------------------------------------|
|---9--10-9-12--12-10-9----9-10-9-12--12-10-9---9-12-9-12--10-9---10-9~----|
|-9----------------------9---------------------9---------------------------|
|--------------------------------------------------------------------------|
|--------------------------------------------------------------------------|
|--------------------------------------------------------------------------|

Verse-
|------------------------------|
|--------------55----44--------|
|--------9-----66----44-66-----|
|--------9-----66----66-77-----|4x
|--------7-----44----66-77-----|
|--------------------44-55-----|

[ Tab from: http://www.guitaretab.com/k/kamikazee/186032.html ]
|------------------------------------|
|------------------------------------|
|-999999999999999-6666666666666666---|
|-999999999999999-7777777777777777---|2x
|-777777777777777-7777777777777777---|
|-----------------5555555555555555---|

|------------------------------|
|------------------------------|
|------------------------------|
|-88888888-6-------------------|
|-99999999-7-------------------|
|-99999999-7-------------------|
|-77777777-5-------------------|
  ******
Chorus-
GtrI
|---------------------------------------------------------------------|
|---------------------------------------------------------------------|
|-9999999999999999-666666666666666-66666666-44444444-6666666666666666-|
|-9999999999999999-777777777777777-66666666-44444444-7777777777777777-|
|-7777777777777777-777777777777777-44444444-22222222-7777777777777777-|
|------------------555555555555555-------------------5555555555555555-|

|---12-11--------9-----------12-11--------9----------12-11--------9------|
|-9-------9-12-9---12-9----9-------9-12-9---12-9---9-------9-12-9---12-9-|
|------------------------------------------------------------------------|
|------------------------------------------------------------------------|3x
|------------------------------------------------------------------------|
|------------------------------------------------------------------------|

|---------------------------------------------------------------------|
|---------------------------------------------------------------------|
|-9999999999999999-666666666666666-66666666-44444444-6666666666666666-|
|-9999999999999999-777777777777777-66666666-44444444-7777777777777777-|2x
|-7777777777777777-777777777777777-44444444-22222222-7777777777777777-|
|------------------555555555555555-------------------5555555555555555-|

Do intro-
Verse-chorus-
Do intro-
(mmm sarap}
|---------------|
|---------------|
|-99999999999---|
|-99999999999---|
|-77777777777---|
|---------------|


|-------------------------------------|
|-------------------------------------|
|---------6-6-6-6-------------7-----9-|
|-7-7-7-7-6-6-6-6-4-4-4-4-777-7-999-9-|4x
|-7-7-7-7-4-4-4-4-4-4-4-4-555-5-777-7-|
|-5-5-5-5---------2-2-2-2-------------|
                          ***   *** 

then GtrI A - C#m - F#m - D  

Do refrain to chorus
Related for 420 tab
Advertisement will be closed in 10 seconds