Song name
# A B C D E F G H I J K L M N O P Q R S T U V W X Y Z

Kamikazee - Me Na Me tab

Me na ME -kamikazee
long time noisy

09283150081

Intro-
GtrI  GtrII(strum A power chord)
|---------------------------------------------------------------------------|
|---------------------------------------------------------------------------|
|--------------10-1212-14141414141414~--------------10-1212-14141414141414~-|
|-77~----------------------------------77~----------------------------------|
|-77~-7h999999-8--1010-12121212121212~-77~-7h999999-8--1010-12121212121212~-|
|-55~----------------------------------55~----------------------------------|


|-------------------------------------------------------------|
|-------------------------------------------------------------|
|-----------------555----------------------------555----------|
|-----------------555-555------------------------555-555------|2x
|--5/77-5-7-5-xxx-333-555---------5/77-5-7-5-xxx-333-555------|
|--3/55-3-5-3-xxx-----333---------3/55-3-5-3-xxx-----333------|

Verse-
|-------------------------------------------------------------|
|-------------------------------------------------------------|
|----------------------------------------555------------------|
|---7------------------------------------555-555--------------|2x
|---7---------------------5/77-5-7-5-xxx-333-555--------------|
|---5---------------------3/55-3-5-3-xxx-----333--------------|

Refrain
|-------------------------------------------------------------|
|-------------------------------------------------------------|
|-----------------------555---------------------------777-----|
|-----------------------555---------------------------777-----|2x
|-5/77-5/77-5/77-5/77-5-333-----5/77-5/77-5/77-5/77-5-555-----|
|-3/55-3/55-3/55-3/55-3---------3/55-3/55-3/55-3/55-3---------|


Prechorus-
|---------------------------------------------------------------------------|
|---------------------------------------------------------------------------|
|--------------10-1212-14141414141414~--------------10-1212-14141414141414~-|
|-77~----------------------------------77~----------------------------------|
|-77~-7h999999-8--1010-12121212121212~-77~-7h999999-8--1010-12121212121212~-|
|-55~----------------------------------55~----------------------------------|

Chorus-
|-------------------------------------------------------------|
|-------------------------------------------------------------|
|-------------------------------------------------------------|
|-7-55-77-55---7-55-77-55-----7-55-77-55-----7-55-77-55-----7-|
|-7-33-55-55---7-33-55-55-----7-33-55-55-----7-33-55-55-----7-|
|-5-------33---5-------33-----5-------33-----5-------33-----5-|

repeat refrain to chorus-
Interlude-
GtrI  GtrII(strum A power chord)
|---------------------------------------------------------------------------|
|---------------------------------------------------------------------------|
|--------------10-1212-14141414141414~--------------10-1212-14141414141414~-|
|-77~----------------------------------77~----------------------------------|
|-77~-7h999999-8--1010-12121212121212~-77~-7h999999-8--1010-12121212121212~-|
|-55~----------------------------------55~----------------------------------|

GtrI GtrII(strum A power chord)
|--------------------------------------------------------------------------------------------------|
|--------------------------------------------------------------------------------------------------|
|-141414141414141414141415151515151515151515151516161616161717171718181819191919191920202021212121-|
|--------------------------------------------------------------------------------------------------|
|-121212121212121212121213131313131313131313131314141414141515151516161617171717171718181819191919-|
|--------------------------------------------------------------------------------------------------|

Chorus-
|-------------------------------------------------------------|
|-------------------------------------------------------------|
|-------------------------------------------------------------|
|-7-55-77-55---7-55-77-55-----7-55-77-55-----7-55-77-55-------|
|-7-33-55-55---7-33-55-55-----7-33-55-55-----7-33-55-55-------|
|-5-------33---5-------33-----5-------33-----5-------33-------|


|-------------------------------------------------------------vv-|
|----------------------------------------------------------------|
|----------------------------------------------------------------|
|-7-55-77-55---7-55-77-55-----7-55-77-55-----7-55-77-55-7---7777-|
|-7-33-55-55---7-33-55-55-----7-33-55-55-----7-33-55-55-7---7777-|
|-5-------33---5-------33-----5-------33-----5-------33-5---5555-|
Tap to rate this tab
# A B C D E F G H I J K L M N O P Q R S T U V W X Y Z