Song name
# A B C D E F G H I J K L M N O P Q R S T U V W X Y Z

Kamikazee - Isplakitengtenks tab

Intro-

|--------------------------------------------------------------|
|--------------------------------------------------------------|
|----2-1-----2-1----2h4----------2-1-----2-1-------------------|
|-------------------------------------------------2h4p2--------|
|-22------22------22----------22------22------22---------------|
|-00------00------00----------00------00------00---------------|
  **      **      **          **      **      ** 

|--------------------------------------------------------------|
|-------------------------------------------3-5--2h3p2---------|
|----2-1-----2-1----2h4----------2-1---------------------------|
|--------------------------------------------------------------|
|-22------22------22----------22------22-----------------------|
|-00------00------00----------00------00-----------------------|
  **      **      **          **      **       
Tap to rate this tab
# A B C D E F G H I J K L M N O P Q R S T U V W X Y Z