Song name
# A B C D E F G H I J K L M N O P Q R S T U V W X Y Z

Kamikazee - Unang Tikim tab


Unang Tikim by Kamikazee
Tabbed by: Aljun Paul Lipura

Legend:
-----------------------
|.      Palm Mute     |
|////// Pick  Slide   | 
|~      Let ring      |
|X      Dead String   |
------------------------

Intro

Lead
e|------------------------------------------------------------------|
B|--------3---3-5-3-------3---3-5-3~~-----3---3-5-3-------3---3-5~~-|
G|----5-5---5-------5~~-5---5---------5-5---5-------5~~-5---5-------| 
D|------------------------------------------------------------------|
A|------------------------------------------------------------------|
E|------------------------------------------------------------------|

Rhythm
e|-------------------------------------------------------------------|
B|-------------------------------------------------------------------|
G|-------------------------------------------------------------------|
D|------------------------------------------------------------5-3----|
A|------------------------------------------------------------5-3----|
E|------------------------------------------------------------3-1----|


Lead
e|------------------------------------------------------------------|
B|--------3---3-5-3-------3---3-5-3~~-----3---3-5-3-------3---3-5~~-|
G|----5-5---5-------5~~-5---5---------5-5---5-------5~~-5---5-------| 
D|------------------------------------------------------------------|
A|------------------------------------------------------------------|
E|------------------------------------------------------------------|

Rhythm
e|-------------------------------------------------------------------|
B|-------------------------------------------------------------------|
G|-------------------------------------------------------------------|
D|----5~~--------------------------3—3-3-3-3-3-3-3-3-3-3-3-3-3-3-3-3-|
A|----3~~--------------------------3-3-3-3-3-3-3-3-3-3-3-3-3-3-3-3-3-|
E|---------------------------------1-1-1-1-1-1-1-1-1-1-1-1-1-1-1-1-1-|


Lead
e|----------------------------------------------------------------------|
B|--------3---3-5-3-------3---3-5-3~~-----3---3-5-------66-55-----------|
G|----5-5---5-------5~~-5---5---------5-5---5-----3-5~~-------5~~-------|
D|----------------------------------------------------------------------|
A|----------------------------------------------------------------------|
E|----------------------------------------------------------------------|

Rhythm
e|-------------------------------------------------------------------|
B|-------------------------------------------------------------------|
G|-------------------------------------------------------------------|
D|--5-5-5-5-5-5-5-5-5-5-5-5-5-5-5-5-3-3-3-3-3-3-3-3-3-3-55-33-5~-----|
A|--3-3-3-3-3-3-3-3-3-3-3-3-3-3-3-3-3-3-3-3-3-3-3-3-3-3-55-33-3~-----|
E|----------------------------------1-1-1-1-1-1-1-1-1-1-33-11--------|


Verse
e|-------------------------------------------------------------------|
B|-------------------------------------------------------------------|
G|-------------------------------------------------------------------|
D|--5-5-5-5-5-5-5-5-5-5-5-5-5-5-2-3-3-3-3-3-3-3-3-3-3-3-3-3-3-3-3-3--|
A|--3-3-3-3-3-3-3-3-3-3-3-3-3-3-2-3-3-3-3-3-3-3-3-3-3-3-3-3-3-3-3-3--|
E|------------------------------0-1-1-1-1-1-1-1-1-1-1-1-1-1-1-1-1-1--|
    . . . . . . . . . . . . . . . . . . . . . . . . . . . . . . . .

e|-------------------------------------------------------------------|
B|-------------------------------------------------------------------|
G|-------------------------------------------------------------------|
D|--4-5-5-5-5-5-5-5-5-5-5-5-5-5-2-3-3-3-3-3-3-3-3-3-3-3-3-3-3-3-3-3--|
A|--2-3-3-3-3-3-3-3-3-3-3-3-3-3-2-3-3-3-3-3-3-3-3-3-3-3-3-3-3-3-3-3--|
E|------------------------------0-1-1-1-1-1-1-1-1-1-1-1-1-1-1-1-1-1--|
    . . . . . . . . . . . . . . . . . . . . . . . . . . . . . . . . 

e|-------------------------------------------------------------------|
B|-------------------------------------------------------------------|
G|-------------------------------------------------------------------|
D|--5-5-5-5-5-5-5-5-5-5-5-5-5-5-3-3-3-3-3-3-3-3-3-3-3-3-3-3-3-3-3-3--|
A|--3-3-3-3-3-3-3-3-3-3-3-3-3-3-3-3-3-3-3-3-3-3-3-3-3-3-3-3-3-3-3-3--|
E|------------------------------1-1-1-1-1-1-1-1-1-1-1-1-1-1-1-1-1-1--|


Refrain

e|-------------------------------------------------------------------|
B|-------------------------------------------------------------------|
G|-------------------------------------------------------------------|
D|--22---x-x-x--------x-x-x---55---x-x-x---3333----------------------|
A|--00---x-x-x---55---x-x-x---33---x-x-x---3333----------------------|
E|-------x-x-x---33---x-x-x--------x-x-x---1111----------------------|

e|-------------------------------------------------------------------|
B|-------------------------------------------------------------------|
G|-------------------------------------------------------------------|
D|--22---x-x-x--------x-x-x---3333-5-------5-3-----------------------|
A|--00---x-x-x---55---x-x-x---3333-5-------5-3-----------------------|
E|-------x-x-x---33---x-x-x---1111-3-------3-1-----------------------|


Chorus

Lead
e|-------------------------------------------------------------------|
B|------3---3-5-3------3---3-5~--------------------------------------|
G|--5-5---5-------5~-5---5-------------------------------------------|
D|------------------------------3-3-3-3-3-3-3-3-3-3-3-3-3-3-3-3-3-3--|
A|------------------------------3-3-3-3-3-3-3-3-3-3-3-3-3-3-3-3-3-3--|
E|------------------------------1-1-1-1-1-1-1-1-1-1-1-1-1-1-1-1-1-1--|

Rhythm
e|-------------------------------------------------------------------|
B|-------------------------------------------------------------------|
G|-------------------------------------------------------------------|
D|-5~---------------------------3-3-3-3-3-3-3-3-3-3-3-3-3-3-3-3-3-3--|
A|-3~---------------------------3-3-3-3-3-3-3-3-3-3-3-3-3-3-3-3-3-3--|
E|------------------------------1-1-1-1-1-1-1-1-1-1-1-1-1-1-1-1-1-1--|


e|-------------------------------------------------------------------|
B|-------------------------------------------------------------------|
G|-------------------------------------------------------------------|
D|-2-2-2-2-----------------------------------------------------------|
A|-0-0-0-0-5-5-5-5-3-3-3-3-3-3-3-3-3-3-5-5-5-------------------------|
E|---------3-3-3-3-1-1-1-1-1-1-1-1-1-1-3-3-3-------------------------|
							. . .

e|-0~~---------------------------------------------------------------|
B|-0~~---------------------------------------------------------------|
G|-0~~---------------------------------------------------------------|
D|-5~~5-5-5-5-5-5-5-5-5-5-5-5-5-3-3-3-3-3-3-3-3-3-3-3-3-3-3-3-3-3-3--|
A|-3~~3-3-3-3-3-3-3-3-3-3-3-3-3-3-3-3-3-3-3-3-3-3-3-3-3-3-3-3-3-3-3--|
E|------------------------------1-1-1-1-1-1-1-1-1-1-1-1-1-1-1-1-1-1--|


e|-------------------------------------------------------------------|
B|-------------------------------------------------------------------|
G|-------------------------------------------------------------------|
D|-2-2---5-5---3~--5-------------------------------------------------|
A|-0-0---5-5---3~--5-------------------------------------------------|
E|-------3-3---1~--3-------------------------------------------------|


2nd Verse Intro
Lead
e|------------------------------------------------------------------|
B|--------3---3-5-3-------3---3-5-3~~-----3---3-5-3-------3---3-5~~-|
G|----5-5---5-------5~~-5---5---------5-5---5-------5~~-5---5-------| 
D|------------------------------------------------------------------|
A|------------------------------------------------------------------|
E|------------------------------------------------------------------|
Rhythm
e|-------------------------------------------------------------------|
B|-------------------------------------------------------------------|
G|-------------------------------------------------------------------|
D|---------------------------------3—3-3-3-3-3-3-3-3-3-3-3-3-3-3-3-3-|
A|---------------------------------3-3-3-3-3-3-3-3-3-3-3-3-3-3-3-3-3-|
E|---------------------------------1-1-1-1-1-1-1-1-1-1-1-1-1-1-1-1-1-|


Lead
e|----------------------------------------------------------------------|
B|--------3---3-5-3-------3---3-5-3~~-----3---3-5-------66-55-----------|
G|----5-5---5-------5~~-5---5---------5-5---5-----3-5~~-------5~~-------|
D|----------------------------------------------------------------------|
A|----------------------------------------------------------------------|
E|----------------------------------------------------------------------|
Rhythm
e|-------------------------------------------------------------------|
B|-------------------------------------------------------------------|
G|-------------------------------------------------------------------|
D|--5-5-5-5-5-5-5-5-5-5-5-5-5-5-5-5-3-3-3-3-3-3-3-3-3-3-55-33-5~-----|
A|--3-3-3-3-3-3-3-3-3-3-3-3-3-3-3-3-3-3-3-3-3-3-3-3-3-3-55-33-3~-----|
E|----------------------------------1-1-1-1-1-1-1-1-1-1-33-11--------|



2nd Verse

Just Repeat the 1st Verse Tab and add these Lick. Timing lang po.

e|----------------------------|
B|----------------------------|
G|--------33-33---------------|
D|--55-55-------55------------|
A|----------------------------|
E|----------------------------|

Repeat Refrain and Chorus


Solo
Lead
e|--------------------------------------------------------------------------------------|
B|--------------------------------------------------------------------------------------|
G|----------------------------------------4-5-5-5-5-5-5-4-5-5-5-5-5-5-------------------|
D|--4-5--------------2-3------------------x-x-x-x-x-x-x-x-x-x-x-x-x-x-------------------|
A|--2-3--------------2-3-------------53---2-3-3-3-3-3-3-2-3-3-3-3-3-3-------------------|
E|-------------------0-1-------------31-------------------------------/////////---------|
Rhythm
e|--------------------------------------------------------------------------------------|
B|--------------------------------------------------------------------------------------|
G|--------------------------------------------------------------------------------------|
D|--4-5--------------2-3------------------4-5------------2-3-3-3-3-3--------------------|
A|--2-3--------------2-3-------------53--—2-3---------53-2-3-3-3-3-3--------------------|
E|-------------------0-1-------------31---------------31-0-1-1-1-1-1----------//////////|


Lead
e|--------------------------------------------------------------------------------------|
B|--------------------------------------------------------------------------------------|
G|--4-5-5-5-5-5-5----4-5-5-109-7-5--------4-5-5-5-5-5-5-4-5-5-5-5-5-5-------------------|
D|--x-x-x-x-x-x-x----x-x-x-x-x-x-x--------x-x-x-x-x-x-x-x-x-x-x-x-x-x-------------------|
A|--2-3-3-3-3-3-3----2-3-3-8-7-5-3--------2-3-3-3-3-3-3-2-3-3-3-3-3-3-------------------|
E|--------------------------------------------------------------------------------------|
Rhythm
e|-------------------------------------------------------------------------------0~-----|
B|-------------------------------------------------------------------------------0~-----|
G|-------------------------------------------------------------------------------5~-----|
D|--4-5-5-5-5-5------2-3-3-3-3-3-3--------4-5-5-5-5-5----2-3-3-3-3-3-------------5~-----|
A|--2-3-3-3-3-3--53--2-3-3-3-3-3-3---53--—2-3-3-3-3-3-53-2-3-3-3-3-3---55--33----3~-----|
E|---------------31--0-1-1-1-1-1-1---31---------------31-0-1-1-1-1-1---33--11-----------|


Plucking Part (Clean)
e|-------------------------|
B|--1-1-1-1--1-1-1-1-------|4x
G|-------------------------| 
D|-----------3-3-3-3-------|
A|--3-3-3-3----------------|
E|-------------------------|

Lead
e|-------------------------------------------------------------------|
B|---------------------------------------------6665~-----------------|
G|--------------------------4-5-4-5-4545454545-----------------------|
D|-2-3~--333333333333333----x-x-x-x-xxxxxxxxxx-----------------------|
A|-2-3~--333333333333333----2-3-2-3-2323232323-----------------------|
E|-0-1~--111111111111111---------------------------------------------|
         ...............
Rhythm
e|-------------------------------------------------------------------|
B|-------------------------------------------------------------------|
G|--------------------------4-5-4-5-4545454545-----------------------|
D|--------------------------x-x-x-x-xxxxxxxxxx-----------------------|
A|--------------------------2-3-2-3-2323232323-----------------------|
E|-------/////////////-----------------------------------------------|

Chorus

Lead
e|-------------------|     |----------------------|
B|-----3---3-5-3-----|     |-----3---6-5-5~~------|
G|-5-5---5-------5---|6x   |-5-5---5-----5~~------|
D|-------------------|     |----------------------|
A|-------------------|     |----------------------|
E|-------------------|     |----------------------|
   . .   .       .           . .   .     
Rhythm
e|-------------------------------------------------------------------|
B|-------------------------------------------------------------------|
G|----------------------------------------5~~------------------------|
D|----------------------------------------3~~------------------------|
A|------------------------------------5-3----------------------------|
E|------------------------------------3-1----------------------------|

Both
e|-------------------------------------------------------------------|
B|-------------------------------------------------------------------|
G|-------------------------------------------------------------------|
D|-33333333333333--------7---------3----5555555555555555-------------|
A|-33333333333333--------7--BREAK--3----5555555555555555-------------|
E|-11111111111111--------5---------1----3333333333333333-------------|
   Kahambing. . . Ang bangis		 ................

Chorus(2 frets higher)

Lead
e|-------------------------------------------------------------------|
B|-----5---5-7-5------5---5-7-5------5---5-7-5-----------------------|
G|-7-7---7-------7~-7---7-------7~-7---7-------7~--------------------|
D|-------------------------------------------------------------------|
A|-------------------------------------------------------------------|
E|-------------------------------------------------------------------|
Rhythm
e|-------------------------------------------------------------------|
B|-------------------------------------------------------------------|
G|-------------------------------------------------------------------|
D|-777777777777777777777777777-5555555555555555555--4444-2222--5555--|
A|-555555555555555555555555555-5555555555555555555--2222-0000--5555--|
E|-----------------------------3333333333333333333-------------3333--|

Both
e|------------------------------------------------------------------------|
B|------------------------------------------------------------------------|
G|---------------------------------------------------------------------7~-|
D|-777777777777777777777777777-5555555555555555555--4444-2222--5555-7—-7~-|
A|-555555555555555555555555555-5555555555555555555--2222-0000--5555-7—-5~-|
E|-----------------------------3333333333333333333-------------3333-5-----|


Outro
Lead
e|----------------------------------|
B|-----5---5-7-5------5---5/7-------|7x 
G|-7-7---7-------7~-7---7----7~-----| 
D|----------------------------------|
A|----------------------------------|
E|----------------------------------|

Rhythm(papasok ang rhythm guitar sa ika 5th na ulit ng lead. Sabayan nio nalang ang kanta
      at timingan lang ung pasok ng pick slides at bagsak ng guitar.).

e|---------------------------------------------------------|
B|---------------------------------------------------------|
G|---------------------------------------------------------|
D|-77777777777777777777777-5555555555555555555555----------|
A|-55555555555555555555555-5555555555555555555555----------|
E|-------------------------3333333333333333333333----------|


Lead
e|----------------------------------------------------------------|
B|-777-888-101010---88---88---7~----------------------------------|
G|-777-777-7-7-7----77---77---7~----------------------------------|
D|----------------------------------------------------------------|
A|----------------------------------------------------------------|
E|----------------------------------------------------------------|
Rhythm
e|-------------------------------------|
B|-------------------------------------|
G|-------------------------------------|
D|-555-555-555------55---55---7~-------|
A|-555-555-555------55---55---5~-------|
E|-333-333-333------33---33------------|




This is my very first tab. I hope you’ll like it. . (^_^)


For comments email nio lang po ako sa aljun_spy21@yahoo.com

This is a special request from Patricia Janelle Contreras. .
Gusto nia na raw matikman ang kanyang unang tikim. . 


Tap to rate this tab
 
# A B C D E F G H I J K L M N O P Q R S T U V W X Y Z