Song name
# A B C D E F G H I J K L M N O P Q R S T U V W X Y Z

Kamikazee - Unang Tikim tab

HI NGA SA MGA TITV BOYSS!!!!!
PARA SA INYO UNG KANTANG ITO

HAHAHAHAHA

:CHEZTER VILLABROSA
:UNANG TIKIM
:KAMIKAZEE
:long time noisy

INTRO TOH
GUITAR 1
|-------------------------------------------------------|
|------------3------3/5-3--------------3---3/5--3-------|
|------5-5------5-----------5------5--------------------|
|-------------------------------------------------------|
|-------------------------------------------------------|
|-------------------------------------------------------|

ulit ulitin lang yan

GUITAR 2 SBAY PASOK

|-----------------------------------------------------------------|
|-----------------------------------------------------------------|
|---------5~----------5555---------------------5------------------|
|---5/3---5~--3333----5555----3333--5-5--3-3---5------------------|
|---5/3---3~--3333----3333----3333--5-5--3-3---3------------------|
|---3/1-------1111------------1111--3-3--1-1----------------------|


VERSE 1
|------------------------|    -----------------------------|
|-------- ---------------|    -----------------------------|
|--55555555--------------|    -----55555555----------------|
|--55555555--3-3333333---|X2  -----55555555--3333333-------|
|--33333333--3-3333333---|    -----33333333--3333333-------|
|------------1-1111111---|    ---------------1111111-------|
********    *******

sa dinamidami..ihahambing sila     sayo mang...natikman ang langit

REFRAIN

|--------------------------------------------|
|--------------------------------------------|
|---------------------55---------------------|
|---77-xxxx--55-xxxx--55--3-3-3-3-3-3--------|
|---77-xxxx--55-xxxx--33--3-3-3-3-3-3--------|
|---55-xxxx--33-xxxx------0h1h0h1h0h1--------|

Kung saan saan naganap

|-------------------------------------------|
|-------------------------------------------|
|------------------------------------5------|
|---77-xxxx--55-xxxx----3-2-3-5--7-5-5------|
|---77-xxxx--55-xxxx----3-2-3-5--7-5-3------|
|---55-xxxx--33-xxxx----1-0-1-3--5-3--------|

sayo natagpuan                tamis nq unang..

CHORUS
guitar 1
|------------------------------------------------------|
|------------3------3/5-3--------------3---3h5---------|
|------5-5------5-----------5------5-------------------|
|------------------------------------------------------|
|------------------------------------------------------|
|------------------------------------------------------|

guitar 2

|----------------------------------------------|
|----------------------------------------------|
|----------------------------------------------|
|--33333333------7777-5555-33333333----5555----|
|--33333333------7777-5555-33333333----5555----|
|--11111111------5555-3333-11111111----3333----|
****
tikim>         hinahanap hanap .... makikita


|-----------------------------------------------|
|-----------------------------------------------|
|-55555555--------------------------------------|
|-55555555--33333333----77xx-55xx-3-3-3----5----|
|-33333333--33333333----77xx-55xx-3-3-3----5----|
|-----------11111111----55xx-33xx-1-1-1----3----|

ikay walng..kahambing  ang tamis .... unang tikim


intro 2
|------------------------------------------------------|
|------------3------3/5-3--------------3---3h5---------|
|------5-5------5-----------5------5-------------------|
|------------------------------------------------------|
|------------------------------------------------------|
|------------------------------------------------------|


|-----------------------------------------------------------|
|------------3------3/5-3--------------3---3h5------55--55--|
|--5-----5------5-----------5------5----------------55--55--|
|-----------------------------------------------------------|
|-----------------------------------------------------------|
|-----------------------------------------------------------|


VERSE 2

|------------------------|    -----------------------------|
|-------- ---------------|    -----------------------------|
|--55555555--------------|    -----55555555----------------|
|--55555555--3-3333333---|X2  -----55555555--3333333-------|
|--33333333--3-3333333---|    -----33333333--3333333-------|
|------------1-1111111---|    ---------------1111111-------|
********    *******
karanasan natin na kaylupit     sayo mang...natikman ang langit

REFRAIN

|--------------------------------------------|
|--------------------------------------------|
|---------------------55---------------------|
|---77-xxxx--55-xxxx--55--3-3-3-3-3-3--------|
|---77-xxxx--55-xxxx--33--3-3-3-3-3-3--------|
|---55-xxxx--33-xxxx------0h1h0h1h0h1--------|

Kung saan....
|-------------------------------------------|
|-------------------------------------------|
|------------------------------------5------|
|---77-xxxx--55-xxxx----3-2-3-5--7-5-5------|
|---77-xxxx--55-xxxx----3-2-3-5--7-5-3------|
|---55-xxxx--33-xxxx----1-0-1-3--5-3--------|

sayo kang nadama                tamis nq unang..

CHORUS
guitar 1
|------------------------------------------------------|
|------------3------3/5-3--------------3---3h5---------|
|------5-5------5-----------5------5-------------------|
|------------------------------------------------------|
|------------------------------------------------------|
|------------------------------------------------------|

guitar 2

|----------------------------------------------|
|----------------------------------------------|
|----------------------------------------------|
|--33333333------7777-5555-33333333----5555----|
|--33333333------7777-5555-33333333----5555----|
|--11111111------5555-3333-11111111----3333----|
                                       ****
tikim>         hinahanap hanap .... makikita


|-----------------------------------------------|
|-----------------------------------------------|
|-55555555--------------------------------------|
|-55555555--33333333----77xx-55xx-3-3-3----5----|
|-33333333--33333333----77xx-55xx-3-3-3----5----|
|-----------11111111----55xx-33xx-1-1-1----3----|

ikay walng..kahambing  ang tamis .... unang tikim

guitar 1
|----------------------|
|----3h5-3--3h5--3-----|
|--5-------5-------5-3-|
|----------------------|
|----------------------|
|----------------------|

next part toh

|----------------------------------------- 2 -------------------|
|----------------------------------------- B -------------------|
|--4/5~---5p4p2---------------------4/5~-- E -------------5-----|
|--4/5~---5p4p2--33333333---3/2/0---4/5~-- S -------5/3---5-----|
|--2/3~---3p2p0--33333333---3/2/0---2/3~-- E -------5/3---3-----|
|----------------11111111---1/0/0--------- S -------3/1---------|

ETO YUNG NEXT PART
PAKINGGAN MABUTI MADALI LANG TO!!


|---------------------------------------------------------------     ---|
|---------------------------------------------------------------     ---|
|----0--0--0--0----0--0--0--0-----0--0--0--0----0--0--0--0--0---     ---|
|---------------------------------------------------------------3    ---|
|--3--3--3--3-------------------3--3--3--3----------------------3(X8)---|
|----------------1--1--1--1-------------------5--5--3--3--1-----1    ---|
   ulitin tong part na ito                                       *

hindi malilimutan>.........          sa iyong naranasan ....

eto na ung bago mag chorus ulit
|---------------------------------------------------------|
|---------------------------------------------------------|
|----4/5-5---4/5-5-------x-5-x-5-x-5-x-5---------4/5------|
|----4/5-5---4/5-5-------x-5-x-5-x-5-x-5---555---4/5------|
|----2/3-3---2/3-3-------x-3-x-3-x-3-x-3---555---2/3------|
|------------------------------------------333------------|
                                           ***
|----------------------------------|
|------------3h5h3------3h5h3------|
|-------5----------5--5--------5---| ulitin ang ito
|----------------------------------|
|----------------------------------|
|----------------------------------|

|-----------------|
|-----------------|
|--------5--------|
|--5/3---5--------|
|--5/3---3--------|
|--3/1------------|

      ikay walang

|--------------------------------------------|
|--------------------------------------------|
|--------------------------------------------|
|--33333333------7-----5-----33333333--------|
|--33333333------7-----5-----33333333--------|
|--11111111------5-----3-----11111111--------|
                             ********
  kahambing..   ang tamis......

chorus papataasin lang ng dalawang fret
|-------------------------------------------------|
|-------------------------------------------------|
|-77777777----------------------------------------|
|-77777777--55555555----9999-7777-555555----777---|
|-55555555--55555555----9999-7777-555555----777---|
|-----------33333333----7777-5555-333333----555---|
                                            ***

  tamis ng unang tikim...........

|---------------------------------------------|
|---------------------------------------------|
|-77777777------------------------------------|
|-77777777--55555555----99xx-77xx-5555----7---|
|-55555555--55555555----99xx-77xx-5555----7---|
|-----------33333333----77xx-55xx-3333----5---|


  ikay walng kahambing.....        unang tikim


eto na ung outro
|-------------------------------------------------------|
|------------5------5/7-5--------------5---5/7--5-------|
|------7-7------7-----------7------7--------------------|
|-------------------------------------------------------|
|-------------------------------------------------------|
|-------------------------------------------------------|

|--------------------------------------|
|------777-888-101010------------------|
|------777-777-7-7-7-------------7-----|
|-----------------------77--55---7-----|
|-----------------------77--55---5~----|
|-----------------------55--33---------|

hay salmat pag tiyagaan nyo na lang

chesterferryvillabrosa@yahoo.com

bka may mali eh aus lang ang comments!!!!!!!!!!1
Tap to rate this tab
# A B C D E F G H I J K L M N O P Q R S T U V W X Y Z