Song name
# A B C D E F G H I J K L M N O P Q R S T U V W X Y Z

Kamikazee - Narda Acoustic tab

                             *Kamikazee - Narda***

this is my first tab so i hope it helps....


tabbed by: chris jan


intro:

e|--------0-----0-----0-----------|
B|-----3----3-----3-----3---3-----|
G|--------------------------------|
D|---0--0-----0-----0-----0-------|
A|--------------------------------|
E|--------------------------------|

e|--------0-----0-----0-----------|
B|-----3----3-----3-----3----3----|
G|--------------------------------|
D|--------------------------------|
A|---2--2-----2-----2-----2-------|
E|--------------------------------|

e|--------0-----0-----0-----------|
B|-----3----3-----3-----3---3-----|
G|--------------------------------|
D|--------------------------------|
A|--------------------------------|
E|---3--3-----3-----3-----3-------|

e|--------0------3----------------|
B|-----3----3---------------------|
G|--------------------------------|
D|--------------------------------|
A|---0--0-----0-------------------|
E|--------------------------------|

---end of intro

_____________________________________________________________________________

Guitar 1:

e|----------------------------------|
B|----------------------------------|
G|----------------------------------|
D|---7-7-7-7-7-7-7-7-7-7-7-7-7-7-7--|
A|---5-5-5-5-5-5-5-5-5-5-5-5-5-5-5--|
E|----------------------------------|


e|----------------------------------|
B|----------------------------------|
G|----------------------------------|
D|---4-4-4-4-4-4-4-4-4-4-4-4-4-4-4--|
A|---2-2-2-2-2-2-2-2-2-2-2-2-2-2-2--|
E|----------------------------------|

e|----------------------------------|
B|----------------------------------|
G|----------------------------------|
D|----------------------------------|
A|---5-5-5-5-5-5-5-5-5-5-5-5-5-5-5--|
E|---3-3-3-3-3-3-3-3-3-3-3-3-3-3-3--|

e|----------------------------------|
B|----------------------------------|
G|----------------------------------|
D|----------------------------------|
A|---7-7-7-7-7-7-7-7-7-7-7-7-7-7-7--|
E|---5-5-5-5-5-5-5-5-5-5-5-5-5-5-5--|

repeat this part...

_____________________________________________________________________________

Guitar 2:


e|-7-7-7-5-5-5-7-7-7-5-5-5-7-5--5---|
B|-----------------------------5----|
G|----------------------------------|
D|----------------------------------|
A|----------------------------------|
E|----------------------------------|

repeat this part 4 times


_____________________________________________________________________________

Solo part:

e|--------0-----0-----|
B|-----3----3---------|
G|--------------------|
D|---0--0-----0-------|
A|--------------------|
E|--------------------|

e|--------0-----0-----|
B|-----3----3---------|
G|--------------------|
D|--------------------|
A|---2--2-----2-------|
E|--------------------|

e|--------0-----0-----|
B|-----3----3---------|
G|--------------------|
D|--------------------|
A|--------------------|
E|---3--3-----3-------|

e|--------0------3----|
B|-----3----3---------|
G|--------------------|
D|--------------------|
A|---0--0-----0-------|
E|--------------------|

then repeat guitar 1 until the ending....

luv u mom..XD

Tap to rate this tab
 
# A B C D E F G H I J K L M N O P Q R S T U V W X Y Z