Song name
# A B C D E F G H I J K L M N O P Q R S T U V W X Y Z

Kamikazee - Martyr Nyebera tab

Tabber: Dave UbaŅa
Email Address: hdu_dave1231@yahoo.com
Facebook Account Link : http://www.facebook.com/profile.php?id=1410800710
Location: Daet, Camarines Norte Bicol Region



Intro: Guitar 1 and Guitar 2
e|-------------------------------------------|
B|-------------------------------------------|
G|-------------7-6--------66s7--66s7--66s7s9-| x2
D|-7--2--xxxx--7-6--xxxx--66s7--66s7--66s7s9-|
A|-7--2--xxxx--5-4--xxxx--44s5--44s5--44s5s7-|
E|-5--0--xxxx-------xxxx---------------------|

Guitar 1
e|-----------------|
B|-----------------|
G|------7----9-----| x2
D|-7----7----9-----|
A|-7----5----7-----|
E|-5---------------|

Guitar 2
e|---------------------------------------------------------------|
B|---------------------------------------------------------------|
G|-6-7s9-76-7s9-7-6h7p6h7--7------6-7s9-76-7s9-7-6h7p6h7--7------|
D|--7------7-------------79-979----7------7-------------79-979-7-|
A|-------------------------------------------------------------7-|
E|-------------------------------------------------------------5-|

Verse1:

Guitar 1 : palm mute mga boss
 
e|-----------------|
B|-----------------|
G|------7----9-----| x4
D|-7----7----9-----|
A|-7----5----7-----|
E|-5---------------|

Guitar 2: ganun dn ang chords..kaso..
          diskarte ka dapat..
          galingan mo sa pag lalaro nung palm mute
          timing din pla..

Guitar 1 and Guitar 2 : e2 ung bago mag Chorus
e|-------------|
B|-------------|
G|-11---9----7-|
D|-11---9----7-|
A|-9----7----5-|
E|-------------|

Chorus:

Guitar 1 and Guitar 2 :
e|---------------|------------------------|    |------------|
B|---------------|------------------------|    |------------|
G|-----9---6---7-|-----9---6---5s6-5s6----| x2 |-then intro-|
D|-7---9---6---7-|-7---9---6---5s6-5s6---7|    |-w/o adlib--|
A|-7---7---4---5-|-7---7---4---4s5-4s5---7|    |------------|
E|-7-------------|-7---------------------7|    |------------|

Verse 2: Same lng nung Verse 1
then Pasok ka na sa Chorus..

e|----------|---------------------------------------------------|
B|----------|-10101010-9999-------101099---101099----101099-----|
G|-break----|---------------9999--------99--------99-------9999-|
D|-b4 adlib-|---------------------------------------------------|
A|----------|---------------------------------------------------|
E|----------|---------------------------------------------------|

e|---------------------------------------------|
B|-10101010-9999-------101099---101099---------|
G|---------------9999--------99--------99-9999-|
D|----------------------------------------9999-|
A|----------------------------------------7777-|
E|----------------------------------------0000-|

e|---------------------|
B|---------------------|
G|-----------6666-9999-|
D|-7777-9999-----------|x2
A|---------------------|
E|---------------------|

e|---------------------------------------------------|
B|-10101010-9999-------101099---101099----101099-----|
G|---------------9999--------99--------99-------9999-|
D|---------------------------------------------------|
A|---------------------------------------------------|
E|---------------------------------------------------|

e|----------------------------7s9999-7777---------------|
B|-9s101010101010-99-10101010-------------10101010-9999-|
G|------------------------------------------------------|
D|------------------------------------------------------|
A|------------------------------------------------------|
E|------------------------------------------------------|

e|------------------------------------------------------|
B|-9s101010101010-99-10101010s121212p101010-9---10-9-10-|
G|------------------------------------------------------|
D|------------------------------------------------------|
A|------------------------------------------------------|
E|------------------------------------------------------|

|Break|
then pasok sa Bridge:
simpleng chording lng po

(clean) A-E-C#m-D X4
at the third repeat.. put this.. listen to the song

e|------------------|e|------------------|e|-------------------|
B|-s10-9-10s12-10-9-|B|-s10-9-10s12-10-9-|B|-s10-9-10s12-10-9--|
G|------------------|G|------------------|G|-----------------9-|
D|------------------|D|------------------|D|-------------------|
A|------------------|A|------------------|A|-------------------|
E|------------------|E|------------------|E|-------------------|

then: riff this will clean

e|---------------|
B|---------------|
G|---------6---7-| X2
D|-7---2---6---7-|
A|-7---2---4---5-|
E|-5---0---------|

then

e|-----------------------------|
B|-----------------------------|
G|-pick---6--4-----------------| x2
D|-slide--6--4--6-7--6-7-6-7-9-|
A|--------4--2--6-7--6-7-6-7-9-|
E|--------------4-5--4-5-4-5-7-|

(Repeat Chorus) :) done


Tap to rate this tab
 
# A B C D E F G H I J K L M N O P Q R S T U V W X Y Z