Song name
# A B C D E F G H I J K L M N O P Q R S T U V W X Y Z

Kamikazee - Kislap tab

Song Title:    Kislap
Band/ Artist:  Kamikazee
Album/ Year:   Romantico (2011)

Tabbed By:     Pauz Prima (primesenthyx@yahoo.com) - fb

--------------------------------------------------------------------------------------------

INTRO: C - F

Guitar 1:

|-0~~---1~~--|
|-1~~---1~~--|
|-0~~---2~~--| 2x
|-2~~---3~~--|
|-3~~---3~~--|
|-------1~~--|

Guitar 2:

|-3~~---5~~--|
|-5~~---6~~--|
|-5~~---5~~--|
|------------| 2x
|------------|
|------------|

Guitar 1:

|---------------------------------------------------------------------|
|---------------------------------------------------------------------|
|-5-5-5-5-55555555-5-5-5-5-55555555-5-5-5-5-55555555-5-5-5-5-55555555-|
|-5-5-5-5-33333333-5-5-5-5-33333333-5-5-5-5-33333333-5-5-5-5-33333333-|
|-3-3-3-3-33333333-3-3-3-3-33333333-3-3-3-3-33333333-3-3-3-3-33333333-|
|---------------------------------------------------------------------|
  * * * * ******** * * * * ******** * * * * ******** * * * * ********
|--------------------------------------------------------|
|--------------------------------------------------------|
|-5-5-5-5-55555555-5-5-5-5-55555555-5-5-5-5-55555555-5~~-|
|-5-5-5-5-33333333-5-5-5-5-33333333-5-5-5-5-33333333-5~~-|
|-3-3-3-3-33333333-3-3-3-3-33333333-3-3-3-3-33333333-3~~-|
|--------------------------------------------------------|
  * * * * ******** * * * * ******** * * * * ********

Guitar 2:

|----------------------------------------------------------------|
|---0---0--1-1-1----0---0--1-1-1----0---0--1-1-1----0---0--1-1-1-|
|-0---0---0-0-0---0---0---0-0-0---0---0---0-0-0---0---0---0-0-0--|
|----------------------------------------------------------------|
|----------------------------------------------------------------|
|----------------------------------------------------------------|

|--------------------------------------------------------------|
|---0---0--1-1-1----0---0--1-1-1----0---0--1-1-1----0---0--1~~-|
|-0---0---0-0-0---0---0---0-0-0---0---0---0-0-0---0---0---0----|
|--------------------------------------------------------------|
|--------------------------------------------------------------|
|--------------------------------------------------------------|

Guitar 1:

|-------------------------------------------------------------|
|-------------------------------------------------------------|
|-------------------------------------------------------------|
|-55555555555555-33333333333333-55555555555555-33333333333333-| 2x
|-33333333333333-33333333333333-33333333333333-33333333333333-|
|----------------11111111111111----------------11111111111111-|

Guitar 2:

|--------------------------------------|
|--------------------------------------|
|--------------------------------------|
|---2-3-2-3/5-3-2-3---2-3-2-5-5/7-5-3~-| 4x
|-3-----------------3------------------|
|--------------------------------------|


VERSE 1: C - F - (G)

Guitar 1 & 2:

|-----------------------------|
|-----------------------------|
|-555~~-------555-555---------|
|-555~~-333~~-555-555-333-333-|
|-333~~-333~~-333-333-333-333-|
|-------111~~---------111-111-|

|-----------------------------------------------------------------|
|-----------------------------------------------------------------|
|-----------------------------------------------------------------|
|-55555555555555-33333333333333-55555555555555-33333333333333-5~~-|
|-33333333333333-33333333333333-33333333333333-33333333333333-5~~-|
|----------------11111111111111----------------11111111111111-3~~-|
  **************   ************ **************   ************

C                     F
Unang tingin pa lang, ay tinamaan na ako,
C                           F
At sa ganda ng 'yong ngiti, ay nabihag mo ako.
C         F
Pakinggan himig ng pusong ito,
C                    F          G (break)
Parang lovesong ng Parokya na harana sa iyo.


INTERLUDE: C - F

Guitar 1:

|-------------------------------------------------------------|
|-------------------------------------------------------------|
|-------------------------------------------------------------|
|-55555555555555-33333333333333-55555555555555-33333333333333-|
|-33333333333333-33333333333333-33333333333333-33333333333333-|
|----------------11111111111111----------------11111111111111-|

Guitar 2:

|--------------------------------------|
|--------------------------------------|
|--------------------------------------|
|---2-3-2-3/5-3-2-3---2-3-2-5-5/7-5-3~-| 2x
|-3-----------------3------------------|
|--------------------------------------|


VERSE 2:

C                   F
Umulan man ng apoy, tumaas man ang bilihin,
C                          F
At kahit na walang makain, ang lahat ay kakayanan,
   C           F
Ngayon ko lang, naramdaman ang ganito,
C                            F        G (break)
Kahit ano pang dumating, pag-ibig sasagip sa'tin.


CHORUS: C - F - C - F - Am - F - Am - G

Guitar 1:

|-------------------------------------------------------------|
|-------------------------------------------------------------|
|-------------------------------------------------------------|
|-55555555555555-33333333333333-55555555555555-33333333333333-|
|-33333333333333-33333333333333-33333333333333-33333333333333-|
|----------------11111111111111----------------11111111111111-|

|--------------------------------------------------|
|--------------------------------------------------|
|--------------------------------------------------|
|-77777777777777-33333333333333-77777777777777-5~~-|
|-77777777777777-33333333333333-77777777777777-5~~-|
|-55555555555555-11111111111111-55555555555555-3~~-|
  ************** ************** **************

Guitar 2:

|----------------------------------------------------------|
|-------------------------------1-0---1-0-----3-1---3-1----|
|-55555555555555--------------------0-----0~------0-----0~-|
|-xxxxxxxxxxxxxx-33333333333333----------------------------|
|-33333333333333-33333333333333----------------------------|
|----------------11111111111111----------------------------|

|--------------------------------------------------|
|--------------------------------------------------|
|--------------------------------------------------|
|-77777777777777-33333333333333-77777777777777-5~~-|
|-77777777777777-33333333333333-77777777777777-5~~-|
|-55555555555555-11111111111111-55555555555555-3~~-|
  ************** ************** **************

C         F        C       F
Kislap ng buhay ko, liwanag ng aking mundo,
Am                F
Sa'yo nagsimula lahat ng ito,
Am                   G (break)
Ikaw ang dahilan, kislap ng buhay ko.


 ------ REPEAT INTERLUDE (2x) -------


CHORUS:

|----------------------------------------------------------|
|----------------------------------------------------------|
|----------------------------------------------------------|
|-77777777777777-33333333333333-77777777777777-555555555~~-|
|-77777777777777-33333333333333-77777777777777-555555555~~-|
|-55555555555555-11111111111111-55555555555555-333333333~~-|
  ************** ************** **************

Am                F
Sa'yo nagsimula lahat ng ito,
Am                   G (break)
Ikaw ang dahilan, kislap ng buhay ko.


BRIDGE:

Guitar 2:

|-----------------------|
|-----------------------|
|-5-5-4-4-5-5-7-7-5-4~--|
|-x-x-x-x-x-x-x-x-x-x---|
|-3-3-2-2-3-3-5-5-3-2~--|
|-----------------------|

Guitar 1:

|-----------------------|
|-----------------------|
|-----------------------|
|-----------------5-4~--|
|-----------------3-2~--|
|-----------------------|

Guitar 1 & 2: palm-muted | sasabay din dito ung bass..

|----------------------|----------------------|----------------------|
|----------------------|----------------------|----------------------|
|----------------------|----------------------|----------------------|
|----------------------|----------------------|----------------------|
|----------------------|----------------------|----------------------|
|-0-1-0-1-0-1-0-1-0--1-|-0-1-0-1-0-1-0-1-0--1-|-0-1-0-1-0-1-0-1-0--1-|


CHORUS:

Guitar 1 & 2:

|-------------------------------------------------------------|
|-------------------------------------------------------------|
|-------------------------------------------------------------|
|-55555555555555-33333333333333-55555555555555-33333333333333-| 4x
|-33333333333333-33333333333333-33333333333333-33333333333333-|
|----------------11111111111111----------------11111111111111-|


C         F         C         F
Kislap ng buhay ko, kislap ng buhay ko, 
C         F         C       F (break)
Kislap ng buhay ko, liwanag ng aking mundo.


ADLIB:

Guitar 1: C - F (6x) - C (break)

Guitar 2:

|----------------|
|----------------|
|-55555555555555-|
|-xxxxxxxxxxxxxx-|
|-33333333333333-|
|----------------|

|-----------------------------------------------------------------------------------|
|-----------------------------------------------------------------------------------|
|-55555555555555-77777777-9999-10101010/121212121212121212121212121212121212121212\-|
|-xxxxxxxxxxxxxx-xxxxxxxx-xxxx-xxxxxxxx-xxxxxxxxxxxxxxxxxxxxxxxxxxxxxxxxxxxxxxxxxx--|
|-33333333333333-55555555-7777-8-8-8-8-/101010101010101010101010101010101010101010\-|
|-----------------------------------------------------------------------------------|

|------------------------------------------------------------------------|
|------------------------------------------------------------------------|
|-5-4---------------5-4---------------5-4---------------5-4--------------|
|-----5-3~-5h7-5~~------5-3~-5h7-5~~------5-3~-5h7-5~~------5-3~-5h7-5~~-|
|------------------------------------------------------------------------|
|------------------------------------------------------------------------|

|-------------------|
|-------------------|
|-------------------|
|---2-3-2-3/5-3-2~~-|
|-3-----------------|
|-------------------|


CHORUS:

Guitar 1:

|-------------------------------------------------------------|
|-------------------------------------------------------------|
|-------------------------------------------------------------|
|-55555555555555-33333333333333-55555555555555-33333333333333-| 4x
|-33333333333333-33333333333333-33333333333333-33333333333333-|
|----------------11111111111111----------------11111111111111-|

|--------------------------------------------------------------|
|--------------------------------------------------------------|
|---------------------------------------------------------5~~~-|
|-77777777777777-33333333333333-77777777777777-555555555--5~~~-|
|-77777777777777-33333333333333-77777777777777-555555555--3~~~-|
|-55555555555555-11111111111111-55555555555555-333333333-------|
  ************** ************** **************

Guitar 2:

|-------------------------------------------------------------------------|
|-------------------------------------------------------------------------|
|-------------------------------------------------------------------------|
|---2-3-2-3/5-3-2-3---2-3-2-3/5-3-2-3---2-3-2-3/5-3-2-3---2-3-2-3/5-3-2-3-| 2x
|-3-----------------3-----------------3-----------------3-----------------|
|-------------------------------------------------------------------------|

|-----------------------------------------------------------------|
|------------------------1-1---1-1--------------------------------|
|------------------------------------------------------------5~~~-|
|-77777777777777-33333333----33----77777777777777-555555555--5~~~-|
|-77777777777777-33333333----33----77777777777777-555555555--3~~~-|
|-55555555555555-11111111----11----55555555555555-333333333-------|
  ************** ********    **    **************

C         F         C         F
Kislap ng buhay ko, kislap ng buhay ko, 
C         F         C       F
Kislap ng buhay ko, liwanag ng aking mundo.
Am                F
Sa'yo nagsimula lahat ng ito,
Am                   G (break)
Ikaw ang dahilan, kislap ng buhay ko.


* - palm mute
/ - slide up
\ - slide down
h - hammer on
~ - let ring

pakirate po..thnx!!:D

--------------------------------------------------------------------------------------------------

> Senthyx Band
> Senthyx Zone
Tap to rate this tab
 
# A B C D E F G H I J K L M N O P Q R S T U V W X Y Z