Song name
# A B C D E F G H I J K L M N O P Q R S T U V W X Y Z

Kamikazee - Tagpuan tab

tabbed by: ariel gorgoya
email: hunter_ariel_0309@yahoo.com

E---------------------------------------------------------------------|
B---------------------------------------------------------------------|
G---4-2---------------------------------------------------------------| (7x)
D-0-----0-5-4-0-2-4-0-5-4-0-2-4---------------------------------------|
A---------------------------------------------------------------------|
E---------------------------------------------------------------------|

then,

E---------------------------------------------------------------------|
B---------------------------------------------------------------------|
G--2-4--0-2-----------------------------------------------------------|
D-0----0---0-4-5-0-2-4-0-2-4-0----------------------------------------|
A---------------------------------------------------------------------|
E---------------------------------------------------------------------|

this is my first time
hope you like@@@@
Tap to rate this tab
# A B C D E F G H I J K L M N O P Q R S T U V W X Y Z