Song name
# A B C D E F G H I J K L M N O P Q R S T U V W X Y Z

Kamikazee - If Youre Not Here tab

Intro:

e-----------------|
B-----------------|
G-7h8p7-5---------| 
D---------8-5-----|
A-------------7-5-|
D-----------------| x2
          . . . .

e---------------------------------------------|
B---------------------------------------------|
G----------------------3-3-5-5-7-7~-----------|
D-8-7-6-5-3-3~-5-5-7-7-3-3-5-5-7-7~-----------|
A-8-7-6-5-3-3~-5-5-7-7-1-1-3-3-5-5~-pickslide-|
D-8-7-6-5-3-3~-5-5-7-7------------------------|
                 .   .   .   .

Verse

e---------------------|    e---------|
B---------------------|    B---------|
G------5555-3333------|    G---------|
D-3333-5555-3333-3333-|    D-2-2-2-2-|
A-3333-3333-1111-3333-|    A-2-2-2-2-|
D-3333-----------3333-| x2 D-2-2-2-2-|


Refrain:

e------------------------------------------------| 
B------------------------------------------------|
G-7777------7777---------7777------------------5-|
D-7777-7777-7777-777-777-7777-7777-755-755-755-5-|
A-5555-7777-5555-777-777-5555-7777-755-755-755-3-|
D------7777------777-777------7777-755-755-755---|
                 .. ..             .   .   .

Verse II:

e-----------------------------------------------------------------|
B-----------------------------------------------------------------|
G-----------------555-555-555-555-333-333-333-333-----------------| 
D-333-333-333-333-555-555-555-555-333-333-333-333-333-333-333-333-|
A-333-333-333-333-333-333-333-333-111-111-111-111-333-333-333-333-|
D-333-333-333-333---------------------------------333-333-333-333-| x2
  ..  ..  ..  ..  ..  ..  ..  ..  ..  ..  ..  ..  ..  ..  ..  ..

e---------|
B---------|
G---------|
D-2-2-2-2-|
A-2-2-2-2-|
D-2-2-2-2-|

Repeat Refrain

Chorus:

e-----------------------------------|
B-----------------------------------|
G--------------------7777-----------|
D-8888-10101010-7777-7777-8-7~-7-5~-|
A-8888-10101010-7777-5555-8-7~-7-5~-|
D-8888-10101010-7777------8-7~-7-5~-|

Pre-Verse:

e-----------------|
B-----------------|
G-7h8p7-5---------| 
D---------8-5-----|
A-------------7-5-|
D-----------------| x2
          . . . .

e--------------|
B--------------|
G--------------|
D-8-7-6-5-3-3~-|
A-8-7-6-5-3-3~-|
D-8-7-6-5-3-3~-|

Repeat Verse II
Repeat Refrain
Repeat Chorus

Adlib:

e---------------------------------------------------|
B-----------13s15-13~-13h15p13-11h13p11-------------|
G---------------------------------------14-12-10-12-|
D-pickslide-----------------------------------------|
A---------------------------------------------------|
D---------------------------------------------------|

e--------------------------------------------------------------|
B----------------------------------------13--------------------|
G-10-12-10-12s14-12s10-12h14p12-10-12s14----14p12-10~-10101010-|
D-----------------------------------------------------10101010-|
A--------------------------------------------------------------|
D--------------------------------------------------------------|

e-------------------------------------------------------------------|
B-------------------------------------------------------------------|
G----------10----------10-------10----------12----------12-------12-|
D-10-12-10----10-12-10----10-12----10-12-10----10-12-10----10-12----|
A-------------------------------------------------------------------|
D-------------------------------------------------------------------|
  .  .  .     .  .  .     .  .     .  .  .     .  .  .     .  .

e-----------------------------------------------------|
B-----------------------------------------------------|
G-t17-12h14h15-t17-12h14h15-t17-12h14h15-t17-12h14h15-|
D-----------------------------------------------------|
A-----------------------------------------------------|
D-----------------------------------------------------|

e----------------------------------------------------------|
B----------------------------------------------------------|
G-12b-10h12s14-12s10--9999-10101010-12121212-10101010-9999-|
A----------------------------------------------------------|
D----------------------------------------------------------|
D----------------------------------------------------------|

e-------------------|
B-------------------|
G-------------------| 
D-12121212-10101010-|
A-------------------|
D-------------------|

Repeat Refrain

Chorus: A# C Am Dm

e-----------|
B-----------|
G-----------|
D-8-7~-7-5~-|
A-8-7~-7-5~-|
D-8-7~-7-5~-|

Outro:

e------------------|
B------------------|
G---------77777777-|
D-5555555555555555-|
A-5555555555555555-|
D-5555555555555555-|
  ........

e----------------------|
B----------------------|
G-5-7-9-10-12-10-9-7-5-|
D-x-x-x-x--x--x--x-x-x-|
A-3s5s7s8-s10s8-s7s5s3-|
D----------------------|

e--------------------|
B--------------------|
G-5-7-9-7-5-10101010-|
D-x-x-x-x-x-x-x-x-x--|
A-3s5s7s5s3s8-8-8-8--|
D--------------------|

e-----------|
B-----------|
G-----------|
D-8-7~-7-5~-|
A-8-7~-7-5~-|
D-8-7~-7-5~-|

e---------------------------|
B---------------------------|
G---------77777777----------|
D-5555555555555555-fade out-|
A-5555555555555555----------|
D-5555555555555555----------|
  ........

e----|
B----|
G----|
D-3~-|
A-3~-|
D-3~-|

made by alphie velasco try lang :D
Tap to rate this tab
# A B C D E F G H I J K L M N O P Q R S T U V W X Y Z