Song name
# A B C D E F G H I J K L M N O P Q R S T U V W X Y Z

Kamikazee - Huling Sayaw Acoustic tab

Huling Sayaw (Acoustic) - Kamikazee

Chords Used: 
E - 022100 / x799xx
F# - x44200
A - x77600 / x02200
C# - x466xx
Bm - x244xx

Intro: 

Guitar 1
|--0-------0-------0--------|   |--x-------x-------0--------|
|--0-------0-------0--------|   |--x-------x-------0--------|
|--1-------2-------6--------|   |--6-------9-------2--------|   2x
|--2-------4-------7--------|   |--6-------9-------2--------|
|--2-------4-------7--------|   |--4-------7-------0--------|
|--0-------x-------x--------|   |--x-------x-------x--------|
        
Guitar 2
|----------------------------------------------------------------------|
|--9-9-9-9-9-9-9-9--10-10-10-10-10-10-10-10--14-14-14-14-14-14-14-14---|
|--9-9-9-9-9-9-9-9--9--9--9--9--9--9--9--9---14-14-14-14-14-14-14-14---|
|----------------------------------------------------------------------|
|----------------------------------------------------------------------|
|----------------------------------------------------------------------|

|-----------------------------------------------------------------------|
|-9-9-9-9-9-9-9-9---10-10-10-10-10-10-10-10---12-12-12-12-12-12-12-12---|
|-9-9-9-9-9-9-9-9---9--9--9--9--9--9--9--9----9--9--9--9--9--9--9--9----|
|-----------------------------------------------------------------------|
|-----------------------------------------------------------------------|
|-----------------------------------------------------------------------|
   (play this at the same time when guitar 1 play's the second set )


Verse 1:


Guitar 1
|----------0---------0-----------0--------------0----------|
|----------0---------0-----------0--------------0----------|
|-------6---------4-----------2-------------2--------------|    4x
|-----6---------4-----------2-------------2----------------|
|---4---------2-----------0------------0-------------------|
|---x---------x-----------x------------x-------------------|

Ito na ang ating huling sandali
Hindi na tayo magkakamali
Kase wala ng bukas, Sulitin natin ito na ang wakas
Kailangan na yata nating umuwi


Refrain:


Guitar 1
|-------------------------------------------------|
|------2--2--2--2--2--2--2--2--2--2--2--2---------|
|----2--2--2--2--2--2--2--2--2--2--2--2--2--------|
|-------------------------------------------------|
|-------------------------------------------------|
|-------------------------------------------------|
Hawakan mo aking kamay,

|-------------------------------------------------|
|-------4-4-4-4-4-4-4-4-4-4-4-4-4-----------------|
|------4-4-4-4-4-4-4-4-4-4-4-4-4------------------|
|-------------------------------------------------|
|-------------------------------------------------|
|-------------------------------------------------|
Bago tayo mag hiwalay.

|----------------------------------------------------------------|
|--2-2-2-2-2-2-2-2-2-2-2-2---4-4-4-4-4-4-4-4-4-4-4-4-4--5--------|
|-2-2-2-2-2-2-2-2-2-2-2-2-2---4-4-4-4-4-4-4-4-4-4-4-4-4-4--------|
|----------------------------------------------------------------|
|----------------------------------------------------------------|
|----------------------------------------------------------------|
Lahat lahat ibibigay, lahat lahat.


Chorus:


Guitar 1
|--0-------0----------0--------|        |--x-------x-------0--------|
|--0-------0----------0--------|        |--x-------x-------0--------|
|--1-------2----------6--------|        |--6-------9-------2--------|
|--2-------4----------7--------|        |--6-------9-------2--------|
|--2-------4----------7--------|        |--4-------7-------0--------|
|--0-------x----------x--------|        |--x-------x-------x--------|
Paalam sating huling sayaw.             May dulo pala ang langit.


Guitar 1
|--0----------0----------0-----------|  
|--0----------0----------0-----------|  
|--1----------2----------6-----------|  
|--2----------4----------7-----------|  
|--2----------4----------7-----------|  
|--0----------x----------x-----------|  

Guitar 2
|----------------------------------------------------------------------|
|--9-9-9-9-9-9-9-9--10-10-10-10-10-10-10-10--14-14-14-14-14-14-14-14---|
|--9-9-9-9-9-9-9-9--9--9--9--9--9--9--9--9---14-14-14-14-14-14-14-14---|
|----------------------------------------------------------------------|
|----------------------------------------------------------------------|
|----------------------------------------------------------------------|
Kaya't sabay tayong bibitaw,

Guitar 1                        
|--x----------x----------0-----------|
|--x----------x----------0-----------|
|--6----------9----------2-----------|
|--6----------9----------2-----------|
|--4----------7----------0-----------|
|--x----------x----------x-----------|

Guitar 2
|-----------------------------------------------------------------------|
|-9-9-9-9-9-9-9-9---10-10-10-10-10-10-10-10---12-12-12-12-12-12-12-12---|
|-9-9-9-9-9-9-9-9---9--9--9--9--9--9--9--9----9--9--9--9--9--9--9--9----|
|-----------------------------------------------------------------------|
|-----------------------------------------------------------------------|
|-----------------------------------------------------------------------|
Sa ating huling sayaw.





Verse 2:


Guitar 1
|---------------0--------------0------------0----------0---------|
|---------------0--------------0------------0----------0---------|
|----------6-------------4--------------2----------2-------------|      4x
|-------6------------4---------------2----------2----------------|
|----4-----------2---------------0-----------0-------------------|
|----x-----------x---------------x-----------x-------------------|

Di namalayan na malalim na ang gabi,
Pero ayoko sanang mag madali.
Kay tamis, kay sarap. Ngunit ito na ang huli.
Kailangan na yata nating uwumwi.



(Repeat Refrain and Chorus)



Bridge: 

Guitar 1
|---x-x-x-x-x-x-x-x----------x-x-----|
|---x-x-x-x-x-x-x-x----------x-x-----|
|---6-6-6-6-6-6-6-6----------4-4-----|  4x
|---4-6-6-6-6-6-6-6----------4-4-----|
|---4-4-4-4-4-4-4-4----------2-2-----|
|---x-x-x-x-x-x-x-x----------x-x-----|

Chorus:


Guitar 1
|--0-------0-------0--------|   |--x-------x-------0--------|
|--0-------0-------0--------|   |--x-------x-------0--------|
|--1-------2-------6--------|   |--6-------4-------2--------|   (palm muted)
|--2-------4-------7--------|   |--6-------4-------2--------|
|--2-------4-------7--------|   |--4-------2-------0--------|
|--0-------x-------x--------|   |--x-------x-------x--------|
Paalam sating huling sayaw.      May dulo pala ang langit.


Guitar 1
|--0-------0-------0--------|   |--x-------x-------0--------|
|--0-------0-------0--------|   |--x-------x-------0--------|
|--1-------2-------6--------|   |--6-------4-------2--------|   (palm muted)
|--2-------4-------7--------|   |--6-------4-------2--------|
|--2-------4-------7--------|   |--4-------2-------0--------|
|--0-------x-------x--------|   |--x-------x-------x--------|
Kaya't sabay tayong bibitaw,     Sa ating huling sayaw.


Chorus:


Guitar 1
|--0-------0----------0--------|    |--x-------x-------0--------|
|--0-------0----------0--------|    |--x-------x-------0--------|
|--1-------2----------6--------|    |--6-------9-------2--------|
|--2-------4----------7--------|    |--6-------9-------2--------|
|--2-------4----------7--------|    |--4-------7-------0--------|
|--0-------x----------x--------|    |--x-------x-------x--------|
Paalam sating huling sayaw.             May dulo pala ang langit.


Guitar 1
|--0----------0----------0-----------|  
|--0----------0----------0-----------|  
|--1----------2----------6-----------|  
|--2----------4----------7-----------|  
|--2----------4----------7-----------|  
|--0----------x----------x-----------|  


Guitar 2
|----------------------------------------------------------------------|
|--9-9-9-9-9-9-9-9--10-10-10-10-10-10-10-10--14-14-14-14-14-14-14-14---|
|--9-9-9-9-9-9-9-9--9--9--9--9--9--9--9--9---14-14-14-14-14-14-14-14---|
|----------------------------------------------------------------------|
|----------------------------------------------------------------------|
|----------------------------------------------------------------------|
Kaya't sabay tayong bibitaw,


Guitar 1                        
|--x----------x----------0-----------|
|--x----------x----------0-----------|
|--6----------9----------2-----------|
|--6----------9----------2-----------|
|--4----------7----------0-----------|
|--x----------x----------x-----------|


Guitar 2
|-----------------------------------------------------------------------|
|-9-9-9-9-9-9-9-9---10-10-10-10-10-10-10-10---12-12-12-12-12-12-12-12---|
|-9-9-9-9-9-9-9-9---9--9--9--9--9--9--9--9----9--9--9--9--9--9--9--9----|
|-----------------------------------------------------------------------|
|-----------------------------------------------------------------------|
|-----------------------------------------------------------------------|
Sa ating huling sayaw.


Outro:


|---x-x-x-x-x-x-x-x----------x-x-----|
|---x-x-x-x-x-x-x-x----------x-x-----|
|---6-6-6-6-6-6-6-6----------4-4-----|  4x
|---4-6-6-6-6-6-6-6----------4-4-----|
|---4-4-4-4-4-4-4-4----------2-2-----|
|---x-x-x-x-x-x-x-x----------x-x-----|





My first guitar tab. Sana magustuhan nyo...
A special thanks sa aking banda: The Promise Fate...Kung wala Kayo di ko magagawa to....hahahha...
Tap to rate this tab
# A B C D E F G H I J K L M N O P Q R S T U V W X Y Z