Song name
# A B C D E F G H I J K L M N O P Q R S T U V W X Y Z

Kamikazee - If Youre Not Here tab

Title: If You're not Here 
Artist: Kamikazee 

h - hammer
/ - slide
* - mute
^ - up

pakingan nyo nalang ung kanta kung pano ang straming.

intro:
|------------------|
|------------------|
|------------------|
|------------------|
|--6h7h6---6h7h6---|
|-------7-------7--|

|-----------------------------------|
|-----------------------------------|
|-----------------------------------|
|--7-6-5-3--------------------------|
|--5-4-3-1-4-3-3---8-9-10-11-12-14--|
|----------2-1-1---6-7-8--9--10-12--|

|------------------------------|
|------------------------------|
|------------------------------|
|--///////////////--pickslide--|
|--//////////////--------------|
|------------------------------|

verse 1:
|--------------------|    |---------|
|--------------------|    |---------|
|-------6----4-------| 2x |---------|
|--4----6----4----4--|    |--44-33--|
|--4----4----2----4--|    |--44-33--|
|--2--------------2--|    |--22-11--|

verse 2:                **   **
|----------------------------------------------------------------|
|----------------------------------------------------------------|
|--8-8888--------8-8888-----------8-8888-------------------------|
|--8-8888-8-8888-8-8888-88-8-88-8-8-8888-8-8888--8-6-4-8-6-4--8--|
|--6-6666-8-8888-6-6666-88-8-88-8-6-6666-8-8888--8-6-4-8-6-4--8--|
|---------6-6666--------66-6-66-6--------6-6666--6-4-2-6-4-2--6--|

verse 3:
   **        **        **        **
|-------------------------------------------|    |---------|
|-------------------------------------------|    |---------|
|------------66-6------44-4-----------------| 2x |---------|
|--44-4------66-6-(4x)-44-4-(4x)-44-4-------|    |--44-33--|
|--44-4-(4x)-44-4------22-2------44-4-(4x)--|    |--44-33--|
|--22-2--------------------------22-2-------|    |--22-11--|

verse 2:                **   **
|----------------------------------------------------------------|
|----------------------------------------------------------------|
|--8-8888--------8-8888-----------8-8888-------------------------|
|--8-8888-8-8888-8-8888-88-8-88-8-8-8888-8-8888--8-6-4-8-6-4--8--|
|--6-6666-8-8888-6-6666-88-8-88-8-6-6666-8-8888--8-6-4-8-6-4--8--|
|---------6-6666--------66-6-66-6--------6-6666--6-4-2-6-4-2--6--|

chorus: pakinggan nyo nalang ung straming ng chorus 
|----------------------------------|
|----------------------------------|
|--4----6---------8----4-3----3----|
|--4----6----8----8----4-3----3-6--|
|--2----4----8----6----2-1----1-6--|
|------------6------------------4--|

intro:
|------------------| |-----------------|
|------------------| |-----------------|
|------------------| |-----------------|
|------------------| |--7-6-5-3--------|
|--6h7h6---6h7h6---| |--5-4-3-1-4-3-3--|
|-------7-------7--| |----------2-1-1--|

verse 3:
   **        **        **        **
|-------------------------------------------|    |---------|
|-------------------------------------------|    |---------|
|------------66-6------44-4-----------------| 2x |---------|
|--44-4------66-6-(4x)-44-4-(4x)-44-4-------|    |--44-33--|
|--44-4-(4x)-44-4------22-2------44-4-(4x)--|    |--44-33--|
|--22-2--------------------------22-2-------|    |--22-11--|

verse 2:                **   **
|----------------------------------------------------------------|
|----------------------------------------------------------------|
|--8-8888--------8-8888-----------8-8888-------------------------|
|--8-8888-8-8888-8-8888-88-8-88-8-8-8888-8-8888--8-6-4-8-6-4--8--|
|--6-6666-8-8888-6-6666-88-8-88-8-6-6666-8-8888--8-6-4-8-6-4--8--|
|---------6-6666--------66-6-66-6--------6-6666--6-4-2-6-4-2--6--|

chorus:
|----------------------------------|
|----------------------------------|
|--4----6---------8----4-3----3----|
|--4----6----8----8----4-3----3-6--|
|--2----4----8----6----2-1----1-6--|
|------------6------------------4--|

|------------------------------|
|------------------------------|
|------------------------------|
|--///////////////--pickslide--|
|--//////////////--------------|
|------------------------------|

solo: di ako sure dito sa lead.
|-----------------------------------------------------|
|-----------------12-14-12----------------------------|
|--14^-14-13^-13^----------14-12----12--12-14-12-14^--|
|--------------------------------14-------------------|
|-----------------------------------------------------|
|-----------------------------------------------------|

|--------------------------------------------------------------|
|--------------------------------------------------------------|
|--14-12----12-14^--14-12----12-14^--1414-1212-10--12-12-1212--|
|--------14---------------14-----------------------------------|
|--------------------------------------------------------------|
|--------------------------------------------------------------|

|---------------------------------------------------------------------|
|---------------------------------------------------------------------|
|-----------12----------12-------------------14----------14-----------|
|--12-13-14----12-13-14----12-13-14-12-13-14----12-13-14----12-13-14--|
|---------------------------------------------------------------------|
|---------------------------------------------------------------------|

|---------------------------------------------------------------------------|
|---------------------------------------------------------------------------|
|--12h14h12h14h12h14h12h14h12h14h12h14^^-14-12-------12-10-9------------12--|
|----------------------------------------------14-12---------12-10-9-12-----|
|---------------------------------------------------------------------------|
|---------------------------------------------------------------------------|

verse 2:
|---------------------------------------------------------|
|---------------------------------------------------------|
|--44-44---66-66-----------88-88---44-44---33-33---3------|
|--44-44---66-66---88-88---88-88---44-44---33-33---3---6--|
|--22-22---44-44---88-88---66-66---22-22---11-33---1---6--|
|------------------66-66-------------------------------4--|

chorus:
|----------------------------------|
|----------------------------------|
|--4----6---------8----4-3----3----|
|--4----6----8----8----4-3----3-6--|
|--2----4----8----6----2-1----1-6--|
|------------6------------------4--|

outro:    
   ******                                                      ***   
|----------------------------------------------------------------------|
|----------------------------------------------------------------------|
|-----------------44444444-66666666----------88888888-4-3--3-----------|
|--44444444444444-44444444-66666666-88888888-88888888-4-3--3-6-444444--|
|--44444444444444-22222222-44444444-88888888-66666666-2-1--1-6-444444--|
|--22222222222222-------------------66666666-----------------4-222222--|


By: PHLP RYS
Tap to rate this tab
# A B C D E F G H I J K L M N O P Q R S T U V W X Y Z