Song name
# A B C D E F G H I J K L M N O P Q R S T U V W X Y Z

Kamikazee - Halik tab

Kamikazee - Halik
Album: Romantico

Tabbed by: Rence C. Liwanag
Para sa inyo to wahahaha.


Intro:

Guitar 1: Jomal (only)

      B
e|-------------------------- -----------|
b|-------------------------- -----------|
g|-44444444444444444444444-4 -6/8\6-0---|
d|-xxxxxxxxxxxxxxxxxxxxxxx-x -x/x\x-x---|
a|-22222222222222222222222-2 -4/6\4-0---|
e|-------------------------- -----------|


Full Band-------------------------------|

Guitar 1: Jomal

e|----------------------|-----------------------------------|
b|----------------------|-----------------------------------|
g|---11-11-9-8----------|----11-11---11-11-11s13-11-9-8-----|
d|-9-----------11-11s13-|--9-------9--------------------11--|
a|----------------------|-----------------------------------|
e|----------------------|-----------------------------------|

e|--------------------------------------------------------|
b|--------------------------------------------------------|
g|---11-11-9-8---------------11s13-11-9-8-9-8h9p8---------|
d|-9-----------11-11s13-11-9----------------------9-9s11--|
a|--------------------------------------------------------|
e|--------------------------------------------------------|

e|----------------|
b|----------------|
g|-pick slide-11--|
d|-pick slide-x---|
a|-pick slide-9---|
e|------------0---|


Guitar 2: Led part

Just do: power chords

E-B-F#-G#m   E-B-F#--  2x    --E

e|---------------|-----------------|     |-----|
b|---------------|-----------------|     |-----|
g|----44---------|-----44----------|     |-----|
d|-2--44--44--66-|--2--44--444444--| 2X  |--2--|
a|-2--22--44--66-|--2--22--444444--|     |--2--|
e|-0------22--44-|--0------222222--|     |--0--|


VERSE 1 PART-------------------------------------|

Guitar 1: Jomal
   E                             F#             G#m                    E
e|------------------------------------------------------------|      |-----|
b|------------------------------------------------------------|      |-----|
g|------------------------------------------------------------|      |-----|
d|-----4-----4------4------4---------4------4-------4------4--|  4x  |--4--|
a|-----x-----x------x------x---------x------x-------x------x--|      |--x--|
e|-0-0---0-0----0-0----0-0-------2-2----2-2-----4-4----4-4----|      |--0--|

e|-----------|
b|-----------|
g|-6/8\6-0---|
d|-x/x\x-x---|
a|-4/6\4-0---|
e|-----------|

Guitar 2: Led
    E                               F#              G#m
e|-----------------------------------------------------------------------|
b|-----------------------------------------------------------------------|
g|------11------11------11------11------11------11--------11---------11--|
d|--9-9-----9-9-----9-9-----9-9-----8-8-----8-8--------------------------| 2x
a|--------------------------------------------------11-11------11-11-----|
e|-----------------------------------------------------------------------|
    E                 F#             G#m
e|-------|       |--------------------------------------|
b|-----0-|       |-------0---0---0---0---0---0---0---0--|
g|--11---|       |----9---9---9---9---8---8---8---8-----|
d|-------| 8x    |--------------------------------------|
a|-------|       |--------------------------------------|
e|-------|       |--------------------------------------|

    E                 F#             G#m                     E
e|-------|       |--------------------------------------|  |----|
b|-----0-|       |-------0---0---0---0---0---0---0---0--|  |-0--|
g|--11---|       |----9---9---9---9---8---8---8---8-----|  |-8--|
d|-------| 8x    |--------------------------------------|  |----|
a|-------|       |--------------------------------------|  |----|
e|-------|       |--------------------------------------|  |----|


CHORUS PART-----------------------------------------------------|

Both guitars plays the same:

E-B-F#-G#m   E-B-F#--  2x    --E

e|---------------|-----------------|     |-----|
b|---------------|-----------------|     |-----|
g|----44---------|-----44----------|     |-----|
d|-2--44--44--66-|--2--44--444444--| 2X  |--2--|
a|-2--22--44--66-|--2--22--444444--|     |--2--|
e|-0------22--44-|--0------222222--|     |--0--|

VERSE 2: REPEAT VERSE 1



CHORUS PART------------------------------------|

Both guitars plays the same:

E-B-F#-G#m   E-B-F#--  2x    --E

e|---------------|-----------------|     |-----|
b|---------------|-----------------|     |-----|
g|----44---------|-----44----------|     |-----|
d|-2--44--44--66-|--2--44--444444--| 2X  |--2--|
a|-2--22--44--66-|--2--22--444444--|     |--2--|
e|-0------22--44-|--0------222222--|     |--0--|


INTERLUDE:

Guitar 1: Jomal
                                 G#m--
e|--------------------------| |--------------------------|  
b|--------------------------| |--------------------------|
g|--11-11-11-11-11-11-11-11-| |--11-11-11-11-11-11-11-11-|
d|--x--x--x--x--x--x--x--x--| |--x--x--x--x--x--x--x--x--|
a|--9--9--9--9--9--9--9--9--| |--9--9--9--9--9--9--9--9--|
e|--------------------------| |--------------------------|

    B--
e|--------------------------| 
b|--------------------------| 
g|--11-11-11-11-11-11-11-11-| 
d|--x--x--x--x--x--x--x--x--| 
a|--9--9--9--9--9--9--9--9--| 
e|--------------------------| 

    E---
e|--------------------|
b|--------------------|
g|--9999999999999999--|
d|--xxxxxxxxxxxxxxxx--|
a|--7777777777777777--|
e|--------------------|

    G#m--
e|---------------------------|-----------------------------------|
b|---------------------------|-----------------------------------|
g|--13-13-13-13-13-13-13-13--|-11-11-11-9-8-99999--8-6-44444444--|
d|--x--x--x--x--x--x--x--x---|-x--x--x--x-x-xxxxx--x-x-xxxxxxxx--|
a|--11-11-11-11-11-11-11-11--|-9--9--9--7-6-77777--6-4-22222222--|
e|---------------------------|-----------------------------------|

e|-----------|
b|-----------|
g|-6/8\6-0---|
d|-x/x\x-x---|
a|-4/6\4-0---|
e|-----------|


Guitar 2: Led

e|--------------------------------------------|
b|--------------------------------------------|
g|---------------44444444---------------------|
d|--66666666-----44444444---2222222222222222--|  2x
a|--66666666-----22222222---2222222222222222--|
e|--44444444----------------0000000000000000--|


REPEAT CHORUS and INTRO


OUTRO:

Guitar 1: Jomal

e|-------------------|
b|-------------------|
g|--11---11-11-11-11-|
d|--x----x--x--x--x--|  2x
a|--9----9--9--9--9--| 
e|-------------------|


Guitar 2: Led

    E  B   F#
e|--------------|
b|--------------|
g|-----44-------|
d|--2--44--44---| 2x
a|--2--22--44---|
e|--0------22---|


End------

SALAMAT!

s- slide
x- dead string
p -pull off
h- hammer on
Tap to rate this tab
# A B C D E F G H I J K L M N O P Q R S T U V W X Y Z