Song name
# A B C D E F G H I J K L M N O P Q R S T U V W X Y Z

Kamikazee - Huling Sayaw Acoustic tab

Tune :G1 Whole Drop
      G2 Standard

Intro:
Guitar 1
-----0000000000-0000000000-00000-00000-00000-----|
-----0000000000-0000000000-00000-00000-00000-----|
-----0000000000-0000000000-00000-00000-00000-----|
-----0000000000-0000000000-00000-00000-00000-----|
-----0000000000-5555555555-99999-77777-55555-----|
-----0000000000-5555555555-99999-77777-55555-----|

Guitar 2

-----44444-55555-9999999999-44444-55555-7777777777---|
-----------------------------------------------------|
-----------------------------------------------------|
-----------------------------------------------------|
-----------------------------------------------------|
-----------------------------------------------------|

VERSE:
Guitar 1
---------0----0----0------------------------|
---------0----0----0------------------------|
---------0----0----0------------------------|
---------0----0----0------------------------|
-----9999x7777x5555x------------------------|
-----9999x7777x5555x------------------------|

Kyla:
Guitar 1
--------------------------------------------|
--------------------------------------------|
--------------------------------------------|   x2
--------------------------------------------|
-----7777777777-9999999999------------------|
-----7777777777-9999999999------------------|

Chorus :
Guitar 1
-----0000000000-0000000000-00000-00000-00000-----|
-----0000000000-0000000000-00000-00000-00000-----|
-----0000000000-0000000000-00000-00000-00000-----|
-----0000000000-0000000000-00000-00000-00000-----|
-----0000000000-5555555555-99999-77777-55555-----|
-----0000000000-5555555555-99999-77777-55555-----|

Verse:
Guitar1
---------0----0----0------------------------|
---------0----0----0------------------------|
---------0----0----0------------------------|
---------0----0----0------------------------|
-----9999x7777x5555x------------------------|
-----9999x7777x5555x------------------------|

Kyla:
Guitar 1
--------------------------------------------|
--------------------------------------------|
--------------------------------------------|   x2
--------------------------------------------|
-----7777777777-9999999999------------------|
-----7777777777-9999999999------------------|

Chorus:
Guitar 1
-----0000000000-0000000000-00000-00000-00000-----|
-----0000000000-0000000000-00000-00000-00000-----|
-----0000000000-0000000000-00000-00000-00000-----|
-----0000000000-0000000000-00000-00000-00000-----|
-----0000000000-5555555555-99999-77777-55555-----|
-----0000000000-5555555555-99999-77777-55555-----|

Outro:
Guitar 1
-----000000000000000000000000000-----------------|
-----000000000000000000000000000-----------------|
-----000000000000000000000000000-----------------|
-----000000000000000000000000000-----------------|
-----999999999999999999999999999-----------------|
-----999999999999999999999999999-----------------|

Guitar 2
-----00-2-4-2-0-7-4-0-2-4-2-0-9-4----------------|
-------------------------------------------------|
-------------------------------------------------|
-------------------------------------------------|
-------------------------------------------------|
-------------------------------------------------|

Chorus Slow:
-----0-----0----0--0--00000----------------------|
-----0-----0----0--0--00000----------------------|
-----0-----0----0--0--00000----------------------|
-----0-----0----0--0--00000----------------------|
-----0-----5----9--7--55555----------------------|
-----0-----5----9--7--55555----------------------|

-----0000000000-0000000000-00000-00000-00000-----|
-----0000000000-0000000000-00000-00000-00000-----|
-----0000000000-0000000000-00000-00000-00000-----|
-----0000000000-0000000000-00000-00000-00000-----|
-----0000000000-5555555555-99999-77777-55555-----|
-----0000000000-5555555555-99999-77777-55555-----|

End:
--0--
--0--
--0--
--0--
--0--
--0--



For more info add me in Facebook: sonieldaniel@rocketmail.com
This is my first tab ^^
i hope you like it
HI sa mga kabanda ko!! (Dudes `n Dudets)
Hi din Tito Rodel ^^
Tap to rate this tab
# A B C D E F G H I J K L M N O P Q R S T U V W X Y Z