Song name
# A B C D E F G H I J K L M N O P Q R S T U V W X Y Z

Kamikazee - Huling Sayaw chords

Highlighted       Show chord diagrams
Lyrics of Huling Sayaw Ft. Kyla – Kamikazee

INTRO:E-F#m-A-C#m-E-A(REPEAT 2X)
 
C#m    E   B     A   
Ito na ang ating huling sandali
C#m    E   B     A  
Di na tayo magkaka mali
C#m    E   B     A  
Kasi wala ng bukas
C#m    E   B     A  
Sulitin natin ito na ang wakas
C#m    E   B     A  
Kailangan na yata nating umuwi

BRIDGE:

A                      C#m
Hawakan mo aking kamay
A                      C#m
Bago tayo maghiwalay
A                      C#m
lahat lahat ibibigay
A
lahat lahat

CHORUS:

E      F#m      A    
Paalam sa ating huling sayaw
C#m     E       A
May dulo pala ang langit
E      F#m      A   
Kaya’t sabay tayong bibitaw
C#m     E       A
Sa ating huling sayaw

C#m    E   B     A   
Di na malayan na malalim na ang gabi
C#m    E   B     A   
Pero ayoko sanang magmadali
C#m    E   B     A   
Kay tamis kay sarap
C#m    E   B     A   
Ngunit ito na ang huli
C#m    E   B     A   
Kailangan na yata natin umuwi

BRIDGE:

A                      C#m
Hawakan mo aking kamay
A                      C#m
Bago tayo maghiwalay
A                      C#m
lahat lahat ibibigay
A
lahat lahat

(REPEAT CHORUS)

SOLO:

LEAD GUITAR 1 

e:--------------------------------------------------------------------|
B:--------------------------------------------------------------------|
G:--------------------------------------------------------------------|
D:--------------------------------------------------------------------|
A:--------------------------------------------------------------------|
E:---9-9-9-9-9-9-9-9-9-9-9-9-9-0-0-0-0-9-9-9-9-9-9-9-9-9-9-9-9-9-0-0-0|



e:-------------------------------------------------------------------S|
B:-------------------------------------------------------------------T|
G:-------------------------------------------------------------------O|
D:6-6-6-6-6-6-6-6-6-6-6-6-6-------6-6-6-6-6-6-6-6-6-6-6-6-6----------P|
A:4-4-4-4-4-4-4-4-4-4-4-4-4-------4-4-4-4-4-4-4-4-4-4-4-4-4----------!|
E:--------------------------0-0-0---------------------------0-0-0----!|

(REPEAT THIS 2X)
Tap to rate this tab
 
# A B C D E F G H I J K L M N O P Q R S T U V W X Y Z