Song name
# A B C D E F G H I J K L M N O P Q R S T U V W X Y Z

Kamikazee - Chinelas tab

----------------------------------------------------------------------------
Chinelas - Kamikazee
----------------------------------------------------------------------------
Tabbed by: uyx
E-mail: 
Tuning:Standard

Intro:

Guitar 1:
e|----------------------------------|
B|----------------------------------|
G|----------------------------------|
D|----------------------------------| x4 
A|----------------------------------|
E|-0-1-2-0-2-3-0-1-2-0-2-3--3-3-4-3-|

Guitar 2:
e|-------------------|
B|-------------------|
G|-------------------|
D|-------------------| x4
A|-2-2-2-2--3-----2--|
E|------------3-2-2--|

Both guitars
e|----------------------------------|
B|----------------------------------|
G|----------------------------------|
D|----------------------------------| x4 
A|----------------------------------|
E|-0-1-2-0-2-3-0-1-2-0-2-3--3-3-4-3-|

Verse:
Nasaan na kaya ……..
e|-----------|
B|-----------|
G|-----------|
D|-2-----2---|
A|-3-----2---|
E|-----------|
 
Wala sa banyo…………..
e|------------------------------------|
B|------------------------------------|
G|-----0---0---2--------0----0--------|
D|---2----------------2-----------2---|
A|-3-----3---3------2------2----2-----|
E|------------------------------------|

Chorus:

Both guitars
e|----------------------------------|
B|----------------------------------|
G|----------------------------------|
D|----------------------------------| x4 
A|----------------------------------|
E|-0-1-2-0-2-3-0-1-2-0-2-3--3-3-4-3-|
Tap to rate this tab
 
# A B C D E F G H I J K L M N O P Q R S T U V W X Y Z