Song name
# A B C D E F G H I J K L M N O P Q R S T U V W X Y Z

Kamikazee - Tagpuan tab

E ------------------------------------------------------|
G ------------------------------------------------------|
B ------------------------------------------------------|
D --0-9p7-0---------------------------------------------|
A-----------10p9-0h7p0-10p9-0-7h9-----------------------|
E ------------------------------------------------------|

E ------------------------------------------------------|
G ------------------------------------------------------|
B ------------------------------------------------------|
D --0-9p7-0---------------------------------------------|
A-----------10p9-0h7p0-10p9-0-7h9-----------------------|
E ------------------------------------------------------|

E ------------------------------------------------------|
G ------------------------------------------------------|
B ------------------------------------------------------|
D --0-9p7-0---------------------------------------------|
A-----------10p9-0h7p0-10p9-0-7h9-----------------------|
E ------------------------------------------------------|
Tap to rate this tab
# A B C D E F G H I J K L M N O P Q R S T U V W X Y Z