Song name
# A B C D E F G H I J K L M N O P Q R S T U V W X Y Z

Kamikazee - Paano tab

Paano by kamikazee

******SA ORIGINAL NA KANTA PO NILA ITO , HINDI PO SA TOWER SESSIONS*******



INTRO : C#m 4x
C#m , A , E 4x

e|--------7------------------------------------------|
B|--4h5-4---5-4-0-4-5-4-0-4-5-4-0----5-4-0-4-5-4-0---|
G|---------------------------------------------------|
D|---------------------------------------------------|
A|---------------------------------------------------|
E|---------------------------------------------------|

e|--------7------------------|
B|--4h5-4---5-4-0-4-5-4-0-5--|
G|---------------------------|
D|---------------------------|
A|---------------------------|
E|---------------------------|

Verse : A , B , C#m 3x
*SABAY SILA NI JOMAL AT LED*
Jomal part
E -----------------------------------------------------------------|
B ---999-777-555-99-77-55-999-10-10-10-12-12-12-10-10-10-99-77-----|
G -----------------------------------------------------------------|
D --------------------------------------------------------------2--|
A --------------------------------------------------------------2--|
E --------------------------------------------------------------0--|

led part
E ------------------------------------------------|
B --555-444-222-55-44-22-555-777-999-777-55-44----|
G ------------------------------------------------|
D ---------------------------------------------2--|
A ---------------------------------------------2--|
E ---------------------------------------------0--|

JOMAL PART
E-------------------------------------|
B-------------------------------------|
G-----------------------------66--66--|
D-----------------------------66--66--|
A----------------2-7-6-2-7-6--44--44--|
E---0-5-4-0-5-4-----------------------|

LED PART
E --------------- 2x --------|
B ---------------    --------|
G ---------------    -66--66-|
D ---------------    -66--66-|
A ---------------    -44--44-|
E -0-5-4-0-5-4---    --------|

CHORUS : **KATULAD PO NG INTRO**

REPEAT VERSE

REPEAT CHORUS

BRIDGE : A , B , C#m 4x

ADLIB : E , C#m , A , A

JOMAL PART

E -----------------7-- 6x -------------------7-5-4-5-4---------|
B -0-4-5-0-4-5-4-0----    --0-4-5-0-4-5-4-0------------7-5-4---|
G --------------------    -------------------------------------|
D --------------------    -------------------------------------|
A --------------------    -------------------------------------|
E --------------------    -------------------------------------|

SABAY ULET SILA DTO

JOMAL PART
E -------------555---------- 4x --------|
B -777-555----------77--55--    --------|
G ---------777--------------    -66666--|
D --------------------------    -*****--|
A --------------------------    -44444--|
E --------------------------    --------|

LED
E ------------------------| 4x
B -555-444-000-777-55-44--|
G ------------------------|
D ------------------------|
A ------------------------|
E ------------------------|

repeat chorus :

jomal and led
E -------------|
B -------------|
G -6--------2--|
D -6--------2--|
A -4--6-7-9-0--|
E -------------|


Chorus 2 :

jomal part
E -----------------7-- 6x -------------------7-5-4-5-4---------|
B -0-4-5-0-4-5-4-0----    --0-4-5-0-4-5-4-0------------7-5-4---|
G --------------------    -------------------------------------|
D --------------------    -------------------------------------|
A --------------------    -------------------------------------|
E --------------------    -------------------------------------|

E -------------555----------| 2x
B -777-555----------77--55--|
G ---------777--------------|
D --------------------------|
A --------------------------|
E --------------------------|

LED *TOWER SESSION VERSION*
E --12-12-12-11-11-11----------14-14-14-12-12-11-11--| 4x
B --------------------12-12-12-----------------------|
G ---------------------------------------------------|
D ---------------------------------------------------|
A ---------------------------------------------------|
E ---------------------------------------------------|

E ------------------------| 2x
B -555-444-000-777-55-44--|
G ------------------------|
D ------------------------|
A ------------------------|
E ------------------------|

outro : A 3x . C#m 12x

E ---------| 4x
B ---------|
G --13-13--|
D --*--*---|
A --11-11--|
E ---------|

ADD ME SA FB . facebook.com/mjenunez
Tap to rate this tab
# A B C D E F G H I J K L M N O P Q R S T U V W X Y Z