Song name
# A B C D E F G H I J K L M N O P Q R S T U V W X Y Z

Kamikazee - Paano tab

Paano  Kamikazee

Lead

Intro

E ----0------|
B ----0------|
G ----03x---|
D ----x------|
A ----x------|
E ----x------|

E|-------------------------------------|
B|-------------------------------------|
G|--6------6-----------6---8---9---10--|
D|--6-4x---6---7---2---x--x--x---10--|
A|--4------4---7---2---4---6--7---9---|
E|-------------5-----------------------|

e|--------7------------------------------------------|
B|--4h5-4---5-4-0-4-5-4-0-4-5-4-0----5-4-0-4-5-4-0---|
G|---------------------------------------------------|
D|---------------------------------------------------|
A|---------------------------------------------------|
E|---------------------------------------------------|

E|--------7------------------|
B|--4h5-4---5-4-0-4-5-4-0-5--|
G|---------------------------|
D|---------------------------|
A|---------------------------|
E|---------------------------|

Verse

E|-x--------------------------------------|
B|-x--------------------------------------|
G|-2---4---6------------------------------|
D|-2---x---x---7---9---11---7---9--10-----|
A|-2---2---4---7---9---11---7---9--10-----|
E|-x-----------5---7---9----5---7--9------|

E|-----------------------------------------------------------------|
B|---999-777-555-99-77-55-999-10-10-10-12-12-12-10-10-10-99-77-----|
G|-----------------------------------------------------------------|
D|--------------------------------------------------------------2--|
A|--------------------------------------------------------------2--|
E|--------------------------------------------------------------0--|





E-------------------------------------|
B-------------------------------------|
G-----------------------------66--66--|
D-----------------------------66--66--|
A----------------2-7-6-2-7-6--44--44--|
E---0-5-4-0-5-4-----------------------|

Chorus

E ----0------|
B ----0------|
G ----03x---|
D ----x------|
A ----x------|
E ----x------|

E|-------------------------------------|
B|-------------------------------------|
G|--6------6-----------6---8---9---10--|
D|--6-4x---6---7---2---x--x--x---10--|
A|--4------4---7---2---4---6--7---9---|
E|-------------5-----------------------|

e|--------7------------------------------------------|
B|--4h5-4---5-4-0-4-5-4-0-4-5-4-0----5-4-0-4-5-4-0---|
G|---------------------------------------------------|
D|---------------------------------------------------|
A|---------------------------------------------------|
E|---------------------------------------------------|

Repeat Verse, Chorus

Bridge

e|---0-------------|
B|---0-------------|
G|-2-0-2-4-6-2-4-6-|
D|-2-0-2-4-6-2-4-6-|
A|---0---2-4---2-4-|
E|---0-------------|

Before Solo

A, C#m, B

Solo

E -----------------7-- 6x -------------------7-5-4-5-4----------|
B -0-4-5-0-4-5-4-----    --0-4-5-0-4-5-4-0------------7-5-4-----|
G --------------------    --------------------------------------|
D --------------------    --------------------------------------|
A --------------------    --------------------------------------|
E --------------------    --------------------------------------|

E|-------------555---------- 4x --------|
B|-777-555----------77--55--    --------|
G|---------777--------------    -66666--|
D|--------------------------    -*****--|
A|--------------------------    -44444--|
E|--------------------------    --------|

Repeat Chorus

E|--12-12-12-11-11-11----------14-14-14-12-12-11-11--| 4x
B|--------------------12-12-12-----------------------|
G|---------------------------------------------------|
D|---------------------------------------------------|
A|---------------------------------------------------|
E|---------------------------------------------------|

E|------------------------| 2x
B|-555-444-000-777-55-44--|
G|------------------------|
D|------------------------|
A|------------------------|
E|------------------------|

outro : A 3x . C#m 12x

E ---------| 4x
B ---------|
G --13-13--|
D --*--*---|
A --11-11--|
E ---------|
Tap to rate this tab
# A B C D E F G H I J K L M N O P Q R S T U V W X Y Z