Song name
# A B C D E F G H I J K L M N O P Q R S T U V W X Y Z

Kamikazee - Halik tab

Intro
Lead
2nd position
e------------------------------------------|
B------------------------------------------|
G--4444444-444-4444444444444444~-6\8--6\4--|
D--xxxxxxx-xxx-xxxxxxxxxxxxxxxx--x-x--x-x--|
A--2222222-222-2222222222222222~-4\6--4\2--|
E------------------------------------------|

Intro Solo
Lead
8th position
e-------------------------------------------------------------|
B-------------------------------------------------------------|
G----11-11~-9-8----8~----11-11---11-11-11s13-11-9-8-----------|
D-/9------------11-----9-------9--------------------11~-------|
A-------------------------------------------------------------|
E-------------------------------------------------------------|

--------------------------------------------------------------|
--------------------------------------------------------------|
-----11-11~-9-8----------------/13-11-\9-8-9-8h9p8-------11~~-|
--/9------------11-11s13-11-9~---------------------9-11~------|
--------------------------------------------------------------|
--------------------------------------------------------------|

Intro Solo
Rhythm
2nd position
e-----------------|-------------------------------|
B-----------------|-------------------------------|
G-----------------|-------------------------------|
D---4-4-----------|---4-4-------------------------|x2
A-2-2-2-4-4-/6-6--|-2-2-2-4-4444444---------------|
E-0-----2-2-/4-4--|-0-----2-2222222---------------|

Intro End
Rhythm
e--------|
B--------|
G--------|
D--------|
A-2~-----|
E-0~-----|

Verse 1
Rhythm
e-------------------------------------|
B-------------------------------------|
G-------------------------------------|
D-------------------------------------|x2
A-2222222222222222-44444444-6666-4444-|
E-0000000000000000-22222222-4444-2222-|
PM................ ........ .... ....

Pre chorus
Lead
slightly mute
e---------------------|                  ----------------|
B---------------------|                  ----------------|
G-11x16-9x8-8x4-6x4---|                  -4~~--6-8-6-4---|
D---------------------|x2                -x----x-x-x-x---|
A---------------------|                  -2~~--4/6-4/2---|
E---------------------|                  ----------------|

Rhythm
e-------------------------------------|
B-------------------------------------|
G-------------------------------------|
D-------------------------------------|x2
A-2222222222222222-44444444-6666-4444-|
E-0000000000000000-22222222-4444-2222-|
PM................ ........ .... ....

Chorus
Lead & Rhythm
2nd position
e-----------------|-------------------------------|
B-----------------|-------------------------------|
G-----------------|-------------------------------|
D---4-4-----------|---4-4-------------------------|x3
A-2-2-2-4-4-/6-6--|-2-2-2-4-4444444---------------|
E-0-----2-2-/4-4--|-0-----2-2222222---------------|

e-----------------|-------------------------------|
B-----------------|-------------------------------|
G-----------------|-------------------------------|
D---4-4-----------|---4-4-------------------------|
A-2-2-2-4-4-/6-6--|-2-2-2-4-4444444-2~------------|
E-0-----2-2-/4-4--|-0-----2-2222222-0~------------|

Verse 2
Lead
e------------------------------------------------------|
B------------------------------------------------------|
G------------------------------------------------------|
D---4~--4~--4~--4~-------------------------------------|
A------------------------------------------------------|
E-00--00--22--22---------------------------------------|
PM..  ..  ..  ..
Tap to rate this tab
# A B C D E F G H I J K L M N O P Q R S T U V W X Y Z