Song name
# A B C D E F G H I J K L M N O P Q R S T U V W X Y Z

Kamikazee - Halik tab

sa mga may tanong, usap tayo sa page ko,
4 Seconds To Sunrise
- sLash Err nga po pala ;)


LEGENDS:
s/ - slide forward
s\ - slide backward


e-------------------------------------------------|
b-------------------------------------------------|
g-5-5-5-5-5-5-5-5-5-5-5-5-5-5-5-5-5-5-5-5-5-5-5-5-|
d-------------------------------------------------|
a-------------------------------------------------|
e-------------------------------------------------|

e-------------------------------------------------|
b--------------8-8-8-6-5-3-5--8-8--8-8-10-8-6-5-3-|
g-5s/9-7-7s\5-5--------------5----5---------------|
d-------------------------------------------------|
a-------------------------------------------------|
e-------------------------------------------------|

e-------------------3s/5-3-3-3-5-3----------------|
b--8-8-8-6-5-3-5-3-1--------5-----3-3s/5-3-1------|
g-5-----------------------5-----------------------|
d-------------------------------------------------|
a-------------------------------------------------|
e-------------------------------------------------|


first time mag submit ng tab, kaya kung may mali po, paki comment down nalang po. 
salamat! :)
Tap to rate this tab
# A B C D E F G H I J K L M N O P Q R S T U V W X Y Z