Song name
# A B C D E F G H I J K L M N O P Q R S T U V W X Y Z

Kamikazee - Martyr Nyebera tab

hello. .im a member of the SkoLsHock band. . pero drums ung ginagamit ko.. 
kayalang gusto kong mag submmit ng tab eh. .  try nyo nalang to. . 
feeling ko tama to. . 
-Guitar1-
|---------------------------------------|
|---------------------------------------|
|---------------------------------------|X2
|--------------------7-7-7-7---9-9-9-9--|
|--7-7-7-7-7-7-7-7---5-5-5-5---7-7-7-7--|
|--5-5-5-5-5-5-5-5----------------------|
||-Guitar2-
|----------------------------------------------|
|----------------------------------------------|
|--6---7\9-7-6---7\9-7-6-7-6-7-----------------|
|----7---------7---------------7-9-9\11-9-7-9--|
|----------------------------------------------|
|----------------------------------------------|
==
|------------------------------------------------|
|------------------------------------------------|
|--6---7\9-7-6---7\9-7-6-7-6-7-------------------|
|----7---------7---------------7-9-9\11-9-7-9-7--|
|------------------------------------------------|
|------------------------------------------------|

at sa lead guitar naman ay eto. . 

|---------------------------------------------------------------------------------------|
|-11-11-11-11-10-10-10-10-----------11-11-10-10------11-11-10-10------------------------|
|------------------------10-10-10-10------------10-10-----------10-10-------------------|
|----------------------------------------------------------------------x-7-x-7-x-7-x-7--|
|----------------------------------------------------------------------x-x-x-x-x-x-x-x--|
|----------------------------------------------------------------------x-5-x-5-x-5-x-5--|

|-------------------------------------------------------------------|
|-------------13p11--------------------13p11h13/14-----------13p12--|
|--15-15-15-15-----14/15-15-15-15-15-15-----------15-15-15-15-------| X4
|-------------------------------------------------------------------|
|-------------------------------------------------------------------|
|-------------------------------------------------------------------|

|--------------------------------------------------------10-10-10-10-8-8-8-8-6-6-6-6-5-5-5-5--|
|--9/11-11-11-11-11-11-11-11-10-10-10-10/11-11-11-11-11//-------------------------------------|
|---------------------------------------------------------------------------------------------|
|---------------------------------------------------------------------------------------------|
|---------------------------------------------------------------------------------------------|
|---------------------------------------------------------------------------------------------|

|------------------------------------------------------------------------|
|--11-11-11-10-10-10-11-11-11-13-13-13-11-11-11-10-10-10---11---10---11--|
|------------------------------------------------------------------------|
|------------------------------------------------------------------------|
|------------------------------------------------------------------------|
|------------------------------------------------------------------------|


yun lang mga pare. . 
enjoy the tab. .
comment nyo i send nyo
nalang sa friendster koh. 
Donz_duck@yahoo.com
__*SkoLsHoCk_RulEs*__
Tap to rate this tab
 
# A B C D E F G H I J K L M N O P Q R S T U V W X Y Z