Song name
# A B C D E F G H I J K L M N O P Q R S T U V W X Y Z

Kamikazee - Shoot Dat Bol tab

Wag ninyong agawin tong tab ko huh, pinaghirapan ko ito ehh, kung gusto
nyo isave ok lng pero wag ninyong ssbihing kayo ang gumawa sbihin ninyo
kay chad ng tipas taguig yan…a.k.a je\r….

intro:
|--------------------------------------------------------------------------|
|--------------------------------------------------------------------------|
|-------1st------------------2nd---------------------3rd-------------------|
|--------------------------------------------------------------------------|
|----0-0-2-2-0------then—-0-3-2-0-2--------then-0-3-2-0-2-0-3-2-0----------|
|----0-0-2-2-0—x4---------0-3-2-0-2—x2-2222-----0-3-2-0-2-0-3-2-0----------|             
                       PM
|---------------------------------------------------------------0-3-2-0-2--|
|--------------------------------------------------------------------------|
|--------------------------------------------------------------------------|
|--------------------------------------------------------------------------|
|--0-3-2-0-3-0-0-3-2-0-3/0-------------------------------------------------|
|--0-3-2-0-3-0-0-3-2-0-3/0-then---repeat 2nd--then—repeat-2rd--------------|

basket bol ba ang……………
|----------------------------------|
|----------------------------------|
|----------------------------------|
|----------------------------------|
|--0-3-2-0-2-0-0-3-2-0-3-0-3-0-----|paulit ulit
|--0-3-2-0-2-0-0-3-2-0-3-0-3-0-----|

nkuha ni shakil ang bola……..
|-----------------------------------------------------------------------------|
|-----------------------------------------------------------------------------|
|-----------------------------------------------------------------------------|
|-5---5-----7---7-----9---9-----10----10---5-----7-----9----------------------|
|-3-5-3-x2--5-7-5-x2--7-9-7-x2--8--10-8----3-x12-5-x12-7-x12------------------|
|---3---------5---------7----------8------------------------------------------|
------------------------------------------------------------------------------|
------------------------------------------------------------------------------|
------5----7----9----11-------------------------------------------------------|
------3-x4-5-x4-7-x4-9-x4-----------------------------------------------------|
------------------------------------------------------------------------------|
------------------------------------------------------------------------------|

stakton 2 malone…..
|----------------------------------|
|----------------------------------|
|----------------------------------|
|----------------------------------|
|---0-3-2-0-2----------------------|
|---0-3-2-0-2----------------------|
gogogogo shoot datbol
ulitin ung 1st

gogogogo shoot datbol
|---------------------------------|
|---------------------------------|
|---------------------------------|
|---------------------------------|
|---------------------------------|
|--3-2-0-3-0-3-2-0-2-0-3-2-0------|

addlib
|-----------------------------------------------|
|-----------------------------------------------|
|-----------------------------------------------|
|-----------------------------------------------|
|-----------------------------------------------|
|--0-3-2-0-2-0-0-3-2-0-3\0-then-0-3-2-0-2-0-2-0-|                               . . . .

|----------------------------------------------------------|
|----------------------------------------------------------|
|----------------------------------------------------------|
|----8-7—-5--3---------------------------------------------|
|--8—-7—-5--3--3-3-3-3-3-4-5-5-5-5-5-5-6-7-7-7-7-7-7-8-9—--|puro ganon
|---------------3-3-3-3-------5-5-5-5-------7-7-7-7--------|hangang makarating ng pang 13th

 frettechnical foul………..
|--------------------------------------------|
|--------------------------------------------|
|--------------------------------------------|
|--------------------------------------------|
|--------------------------------------------|
|----3p2-0—ulitulitin lng--------------------|

nagalit na si couch
|---------------------------------------|
|---------------------------------------|
|---------------------------------------|
|---------------------------------------|
|--0-0-3-4—uliulitin lng ulit-----------|
|--0-0----------------------------------|
   . .

ulitin ung 2nd
gogogogo shoot dat bol – isabay sa 1st

ung mga kasunod hanapin nyo nalang anjan lng un nka2tamad kc…..pki rate nmn slamat….
kung may tanong e2 ew-mail add ko chaddudu@yahoo.com…………..
Tap to rate this tab
# A B C D E F G H I J K L M N O P Q R S T U V W X Y Z