Song name
# A B C D E F G H I J K L M N O P Q R S T U V W X Y Z

Kamikazee - Aids tab

Song: Aids (track 7)
Band: Kamikazee
Album:Maharot


Tabber: Michael -chico- Rombawa
for friendstertseness : mykro85@yahoo.com
for myspacers & neatvibers: chicoholics@yahoo.com


*									     *
*   ~  - let ring 							     *
*   / - slide								     *
*   x - mute	


Intro

guitar1
E-------------------------------------------------|
B-------------------------------------------------|
G-----------------------------------7-------------|
D----------7--7--7--7--7--7--7--7---7-------------|
A----------5--5--5--5--5--5--5--5---5-------------|
E-------------------------------------------------|

E-------------------------------------------------|
B-------------------------------------------------|
G----------7--7--7--7--7--7778885-----------------|
D----------7--7--7--7--7--7778885-----------------|
A----------5--5--5--5--5--5556663-----------------|
E-------------------------------------------------|

E-------------------------------------------------|
B-------------------------------------------------|
G----------5--5--5--5--5--55567-------------------|
D----------5--5--5--5--5--55567-------------------|
A----------3--3--3--3--3--33345-------------------|
E-------------------------------------------------|

E-------------------------------------------------|
B-------------------------------------------------|
G----------7--7--7--7--7--7778885-----------------|
D----------7--7--7--7--7--7778885-----------------|
A----------5--5--5--5--5--5556663-----------------|
E-------------------------------------------------|

E-------------------------------------------------|
B-------------------------------------------------|
G----------5--5--5--5--5--55567-------------------|
D----------5--5--5--5--5--55567-------------------| 
A----------3--3--3--3--3--33345-------------------|
E-------------------------------------------------|

guitar2
E-------------------------------------------------|
B---------777-----5----777----5-------7h5-5-------|
G-------------------------------------------------|
D-------------------------------------------------| x5
A-------------------------------------------------|
E-------------------------------------------------|

E-------------------------------------------------|
B-------777-----5----777----5-------7h5-5--5h7-7--|
G-------------------------------------------------|
D-------------------------------------------------| 
A-------------------------------------------------|
E-------------------------------------------------|

guitar1
E-------------------------------------------------|
B-------------------------------------------------|
G----------7--7--7--7--7--7778885-----------------|
D----------7--7--7--7--7--7778885-----------------|
A----------5--5--5--5--5--5556663-----------------|
E-------------------------------------------------|
E-------------------------------------------------|
B-------------------------------------------------|
G----------5--5--5--5--5--55567-------------------|
D----------5--5--5--5--5--55567-------------------|
A----------3--3--3--3--3--33345-------------------|
E-------------------------------------------------|

E-------------------------------------------------|
B-------------------------------------------------|
G----------7--7--7--7--7--7778885-----------------|
D----------7--7--7--7--7--7778885-----------------|
A----------5--5--5--5--5--5556663-----------------|
E-------------------------------------------------|

E-------------------------------------------------|
B-------------------------------------------------|
G----------5--5--5--5--5--55567-------------------|
D----------5--5--5--5--5--55567-------------------| 
A----------3--3--3--3--3--33345-------------------|
E-------------------------------------------------|


verse1
E-------------------------------------------------|
B-------------------------------------------------|
G-----------------------------------7-------------|
D----------7--7--7--7--7--7--7--7---7-------------|
A----------5--5--5--5--5--5--5--5---5-------------|
E-------------------------------------------------|

E-------------------------------------------------|
B-------------------------------------------------|
G-------------------------------------------------|
D----------7--7--7--7--7--7778885-----------------|
A----------5--5--5--5--5--5556663-----------------|
E-------------------------------------------------|
ika nga nila
E-------------------------------------------------|
B-------------------------------------------------|
G-------------------------------------------------|
D----------5--5--5--5--5--55567-------------------|
A----------3--3--3--3--3--33345-------------------|
E-------------------------------------------------|
8 years in the making
E-------------------------------------------------|
B-------------------------------------------------|
G-------------------------------------------------|
D----------7--7--7--7--7--7778885-----------------|
A----------5--5--5--5--5--5556663-----------------|
E-------------------------------------------------|
ngunit di matapos-tapos ang taping
E-------------------------------------------------|
B-------------------------------------------------|
G-------------------------------------------------|
D----------5--5--5--5--5--55567-------------------| 
A----------3--3--3--3--3--33345-------------------|
E-------------------------------------------------|
damdamin ang ating tanging puhunan
E-------------------------------------------------|
B-------------------------------------------------|
G-------------------------------------------------|
D----------7--7--7--7--7--7778885-----------------|
A----------5--5--5--5--5--5556663-----------------|
E-------------------------------------------------|
sa motion picture ay ating
E-------------------------------------------------|
B-------------------------------------------------|
G-------------------------------------------------|
D----------5--5--5--5--5--55567-------------------| 
A----------3--3--3--3--3--33345-------------------|
E-------------------------------------------------|
pinagtatampokan

refrain

E-------------------------------------------|
B-------------------------------------------|
G----------7-/9-/11-/12-11------------------|
D----------x-/x-/x-/x---x-------------------|
A----------5-/7-/9-/10--9-------------------|
E-------------------------------------------|
pinagtatampokan
E-------------------------------------------|
B-------------------------------------------|
G----------7-/9-/11-/12-/13-/14-------------|
D----------x-/x-/x-/x---/x--/x--------------|
A----------5-/7-/9-/10--/13-/12-------------|
E-------------------------------------------|

E-------------------------------------------|
B-------------------------------------------|
G----------7-/9-/11-/12-11------------------|
D----------x-/x-/x-/x---x-------------------|
A----------5-/7-/9-/10--9-------------------|
E-------------------------------------------|
pinagtatampokan
E-------------------------------------------|
B-------------------------------------------|
G----------7-/9-/11-/12-/13-/14-/15~--------|
D----------x-/x-/x-/x---/x--/x--/x-~--------|
A----------5-/7-/9-/10--/13-/12-/13~--------|
E-------------------------------------------|



verse2

E-------------------------------------------------|
B-------------------------------------------------|
G-----------------------------------7-------------|
D----------7--7--7--7--7--7--7--7---7-------------|
A----------5--5--5--5--5--5--5--5---5-------------|
E-------------------------------------------------|

E-------------------------------------------------|
B-------------------------------------------------|
G----------7--7--7--7--7--7778885-----------------|
D----------7--7--7--7--7--7778885-----------------|
A----------5--5--5--5--5--5556663-----------------|
E-------------------------------------------------|
minsan muntik makalimotan
E-------------------------------------------------|
B-------------------------------------------------|
G----------5--5--5--5--5--55567-------------------|
D----------5--5--5--5--5--55567-------------------|
A----------3--3--3--3--3--33345-------------------|
E-------------------------------------------------|
ang linya
E-------------------------------------------------|
B-------------------------------------------------|
G----------7--7--7--7--7--7778885-----------------|
D----------7--7--7--7--7--7778885-----------------|
A----------5--5--5--5--5--5556663-----------------|
E-------------------------------------------------|
ngunit buti andyan ka
E-------------------------------------------------|
B-------------------------------------------------|
G----------5--5--5--5--5--55567-------------------|
D----------5--5--5--5--5--55567-------------------| 
A----------3--3--3--3--3--33345-------------------|
E-------------------------------------------------|
sadlit nag usap ay sapat

E-------------------------------------------------|
B-------------------------------------------------|
G----------7--7--7--7--7--7778885-----------------|
D----------7--7--7--7--7--7778885-----------------|
A----------5--5--5--5--5--5556663-----------------|
E-------------------------------------------------|
agad agad ay sinalo
E-------------------------------------------------|
B-------------------------------------------------|
G----------5--5--5--5--5--55567-------------------|
D----------5--5--5--5--5--55567-------------------| 
A----------3--3--3--3--3--33345-------------------|
E-------------------------------------------------|
ang galing ng pag adlib mo
E-------------------------------------------------|
B-------------------------------------------------|
G----------7--7--7--7--7--7778885-----------------|
D----------7--7--7--7--7--7778885-----------------|
A----------5--5--5--5--5--5556663-----------------|
E-------------------------------------------------|
muli aking na alala
E-------------------------------------------------|
B-------------------------------------------------|
G----------5--5--5--5--5--55567-------------------|
D----------5--5--5--5--5--55567-------------------| 
A----------3--3--3--3--3--33345-------------------|
E-------------------------------------------------|
nabitin ating eksena
refrain

E-------------------------------------------|
B-------------------------------------------|
G----------7-/9-/11-/12-11------------------|
D----------x-/x-/x-/x---x-------------------|
A----------5-/7-/9-/10--9-------------------|
E-------------------------------------------|
parang hindi nawala
E-------------------------------------------|
B-------------------------------------------|
G----------7-/9-/11-/12-/13-/14-------------|
D----------x-/x-/x-/x---/x--/x--------------|
A----------5-/7-/9-/10--/13-/12-------------|
E-------------------------------------------|

E-------------------------------------------|
B-------------------------------------------|
G----------7-/9-/11-/12-11------------------|
D----------x-/x-/x-/x---x-------------------|
A----------5-/7-/9-/10--9-------------------|
E-------------------------------------------|

E-------------------------------------------|
B-------------------------------------------|
G----------7-/9-/11-/12-/13-/14-/15~--------|
D----------x-/x-/x-/x---/x--/x--/x-~--------|
A----------5-/7-/9-/10--/13-/12-/13~--------|
E-------------------------------------------|


Chorus
E----------------------------------------|
B----------------------------------------|
G----77777777----------------------------|
D----77777777-55555555-99999999-77777777-| 
A----55555555-55555555-99999999-77777777-|
E-------------33333333-77777777-55555555-|

dalangin sana ngayon ay hinog na 
love story natin 
hilaw ng nag umpisa
E---------------------------------------------|
B---------------------------------------------|
G----77777777-----------------------------7~--|
D----77777777-55555555-99999999-77777777--7~--| 
A----55555555-55555555-99999999-77777777--5~--|
E-------------33333333-77777777-55555555------|
mga piling tampo nating lumipas
sa atin ang kulay ay di kumukupas
Bridge

E-------------------------------------------------|
B---------777-----5----777----5-------7h5-5-------|
G-------------------------------------------------|
D-------------------------------------------------|paulit ulit lang
A-------------------------------------------------|
E-------------------------------------------------|
hindi mahalaga kung papatok sa takilya storya nating dalawa
hindi mahalaga buminta man sa masa storya nating dalawa

E-------------------------------------------------|
B-------------------------------------------------|
G----------7--7--7--7--7--7778885-----------------|
D----------7--7--7--7--7--7778885-----------------|
A----------5--5--5--5--5--5556663-----------------|
E-------------------------------------------------|
storya nating dalawa
E-------------------------------------------------|
B-------------------------------------------------|
G----------5--5--5--5--5--55567-------------------|
D----------5--5--5--5--5--55567-------------------|
A----------3--3--3--3--3--33345-------------------|
E-------------------------------------------------|
storya nating dalawa
E-------------------------------------------------|
B-------------------------------------------------|
G----------7--7--7--7--7--7778885-----------------|
D----------7--7--7--7--7--7778885-----------------|
A----------5--5--5--5--5--5556663-----------------|
E-------------------------------------------------|
storya nating dalawa
E-------------------------------------------------|
B-------------------------------------------------|
G----------5--5--5--5--5--55567-------------------|
D----------5--5--5--5--5--55567-------------------| 
A----------3--3--3--3--3--33345-------------------|
E-------------------------------------------------|
storya nating dalawa


Chorus
E----------------------------------------|
B----------------------------------------|
G----77777777----------------------------|
D----77777777-55555555-99999999-77777777-| 
A----55555555-55555555-99999999-77777777-|
E-------------33333333-77777777-55555555-|

dalangin sana ngayon ay hinog na 
love story natin 
hilaw ng nag umpisa
E---------------------------------------------|
B---------------------------------------------|
G----77777777-----------------------------7~--|
D----77777777-55555555-99999999-77777777--7~--| 
A----55555555-55555555-99999999-77777777--5~--|
E-------------33333333-77777777-55555555------|
mga piling tampo nating lumipas
sa atin ang kulay ay di kumukupas


Chorus
E----------------------------------------|
B----------------------------------------|
G----77777777----------------------------|
D----77777777-55555555-99999999-77777777-| 
A----55555555-55555555-99999999-77777777-|
E-------------33333333-77777777-55555555-|

dalangin sana ngayon ay hinog na 
love story natin 
hilaw ng nag umpisa
E---------------------------------------------|
B---------------------------------------------|
G----77777777-----------------------------7~--|
D----77777777-55555555-99999999-77777777--7~--| 
A----55555555-55555555-99999999-77777777--5~--|
E-------------33333333-77777777-55555555------|
ngunit lahat ng ito'y palagay
sa aking isip ay naglalaro lamang



ang ganda nitong kanta..... sana magustohan niyo din..



check niyo narin ung ibang tab ko:
aizo - trip na trip (OST of BarkadaTrip)


Tap to rate this tab
 
# A B C D E F G H I J K L M N O P Q R S T U V W X Y Z