Song name
# A B C D E F G H I J K L M N O P Q R S T U V W X Y Z

Kamikazee - Sobrang Init tab

artist:kamikazee
song:sobrang init
album:maharot
tabber:jan carlo 'ponga' nacion

palm mute - pm - .
slide-\/

tuning-drop d
intro
guitar1
e|----------|   --------------|
B|----------|   --------------|
G|--4\3-----|   -4\3--6\4-6---|
D|--4\3--2--|   -4\3--6\2-6---|
A|--2\1--2--|   -2\1--4\2-4---|
D|-------2--|7x --------------|
pm       .       8th time toh  

guitar2
e|-----------|
B|-----------|
G|-----------|
D|--9\8--2---|
A|--9\8--2---|
D|--9\8--2---|8x 
pm       .


verse(2x)
guitar1
e|----------|   --------------|
B|----------|   --------------|
G|--4\3-----|   -4\3--6\4-6---|
D|--4\3--2--|   -4\3--6\2-6---|
A|--2\1--2--|   -2\1--4\2-4---|
D|-------2--|7x --------------|
pm       .       8th time toh  

guitar2(di masyadong rinig)
e|--------------|    --------|
B|--------------|    --------|
G|--9-9---10\9--|    --10\9--|
D|--x-x----x\x--|then---x\x--|
A|--7-7----8\7--|    ---8\7--|
D|--------------|    --------|paulit-ulit din toh
paulit-ulit toh       

chorus
Both guitars
e|---------------------------|
B|---------------------------|
G|---------------------------|
D|--2--5--4--2--7--5--4--8---|
A|--2--5--4--2--7--5--4--8---|
D|--2--5--4--2--7--5--4--8---|8x


pagkatapos ng chorus
e|--------------------|
B|--------------------|
G|--------------------|
D|--222222222222--2---|
A|--222222222222--2---|
D|--222222222222--2---|
pm  ............

ung pm s prt n 2 up & down
guitar1
e|----------|   --------------|
B|----------|   --------------|
G|--4\3-----|   -4\3--6\4-6---|
D|--4\3--2--|   -4\3--6\2-6---|
A|--2\1--2--|   -2\1--4\2-4---|
D|-------2--|7x --------------|
pm       .       8th time toh  

guitar2
e|----------|
B|----------|
G|--4\3-----|
D|--4\3--2--|
A|--2\1--2--|
D|-------2--|8x 
pm       .


verse
guitar1
e|----------|   -------|
B|----------|   -------|
G|--4\3-----|   --4\3--|
D|--4\3--2--|   --4\3--|
A|--2\1--2--|   --2\1--|
D|-------2--|4x -------|8x
pm       .       

guitar2(di masyadong rinig)
e|--------------|    --------|
B|--------------|    --------|
G|--9-9---10\9--|    --10\9--|
D|--x-x----x\x--|then---x\x--|
A|--7-7----8\7--|    ---8\7--|
D|--------------|    --------|8x
paulit-ulit toh      


chorus
Both guitars
e|---------------------------|
B|---------------------------|
G|---------------------------|
D|--2--5--4--2--7--5--4--8---|
A|--2--5--4--2--7--5--4--8---|
D|--2--5--4--2--7--5--4--8---|8x

pagkatapos ng chorus
e|-----------|
B|-----------|
G|-----------|
D|--222--2---|
A|--222--2---|
D|--222--2---|
pm  ...


breakdown part

bass muna tapos
e|-----|
B|-----|di ako cgurdo kng pm o hindi
G|--9--|
D|--x--|marami 2ng beses pero
A|--7--|bahala na kayo kng
D|-----|pano ung pg strum
pm  .


e|----------|   e|------------|
B|----------|   B|------------|
G|----------|   G|------------|
D|----------|or D|------------|
A|----------|   A|------------|
D|--2b--5b--|   D|--6\2--7\2--|


both guitars
e|--------------|   ------------|
B|--------------|   ------------|
G|--------------|   ------------|
D|-2-2--8\2-2---|   --8\2--2-2--|
A|-2-2--8\2-2---|   --8\2--2-2--|
D|-2-2--8\2-2---|7x --8\2--2-2--|
pm   .      .              . .

e|--------------|
B|--------------| 
G|--------------| 
D|-2-2--8\2-2---| 
A|-2-2--8\2-2---|
D|-2-2--8\2-2---|8x
pm   .      .    



e|------|   e|--------|
B|------|   B|--------|
G|------|   G|--------|
D|------|or D|--------|
A|------|   A|--------|
D|--2b--|   D|--2/5\2-|
paulit-ulit 2ng prt n2



guitar1
e|------------------|    ------------------------------------------|   
B|------------------|    ------------------------------------------|   
G|------------------|    ------------------------------------------|   
D|------------------|    ------------------------------------------|   
A|------------------|    ------------------------------------------|   
D|--2b--4b--5b--7b--|2x  -2b--4b--5b--7b--8b--9b--10b--11b---14~~--|

guitar2
e|--------------|    -----------------------------------|
B|--------------|    -----------------------------------|
G|--------------|    -----------------------------------|
D|--------------|    -----------------------------------|
A|--------------|    -----------------------------------|
D|--4--6--7--9--|2x  -4--6--7--9--10--11--12--13--14~~--|


chorus(8x)-ung pang 5th at 6th times nka palmute


guitar1
e|--------------------|
B|--------------------|
G|--------------------|
D|--222222222222--2---|
A|--222222222222--2---|
D|--222222222222--2---|
pm  ............

guitar2
e|------------------------|
B|------------------------|
G|--99999999---44444444---|
D|--xxxxxxxx---xxxxxxxx---|
A|--77777777---22222222---|
D|------------------------|

e|-----------------------------------------------------|
B|-----------------------------------------------------|
G|-----------------------------------------------------|
D|-2---22---2-2---22---2-2-2-2-2-2-2-2---22222222-22---|
A|-2---22---2-2---22---2-2-2-2-2-2-2-2---22222222-22---|
D|-2---22---2-2---22---2-2-2-2-2-2-2-2---22222222-22---|
pm .   ..   . .   ..   . . . . . . . .   ........



ung pm s prt n 2 up & down
guitar1
e|----------|   
B|----------|   
G|--4\3-----|   
D|--4\3--2--|   
A|--2\1--2--|   
D|-------2--|12x
pm       .       


e|------------|    -----------------|
B|------------|    -----------------|
G|--4\3-------|    --4\3------------| 
D|--4\3--22-2-|    --2\1--22-2-2-2--|
A|--2\1--22-2-|    --2\1--22-2-2-2--| 
D|-------22-2-|3x  -------22-2-2-2--|
pm       ..               ..   .


end

hi s mga kaibigan ko sa nis,pcis,at ris.
hi dn k mico, ate kng cute!
Tap to rate this tab
 
# A B C D E F G H I J K L M N O P Q R S T U V W X Y Z