Song name
# A B C D E F G H I J K L M N O P Q R S T U V W X Y Z

Kamikazee - Ambisyoso tab

Help us improve GuitareTab! Take a short survey!
AMBISYOSO by KAMIKAZEE
Tabbed by: Rakizta_Ralph
Email: fast_break20@yahoo.com.ph (friendster.com)

INTRO:
GUITAR_1
e|---------------------------------------------------------------|
B|---------------------------------------------------------------|
G|---------------------------------------------------------------|
D|-4-4-4-4-4-4-4-4-4-4-4-4-7-7-7-4-5-5-5-5-5-5-5-5-5-5-5-5-7-7-7-|
A|-5-5-5-5-5-5-5-5-5-5-5-5-5-5-5-5-5-5-5-5-5-5-5-5-5-5-5-5-5-5-5-|
E|---------------------------------------------------------------|

GUITAR_1 AND GUITAR_2 ENTERS
e|---------------------------------------------------------------------------|
B|---------------------------------------------------------------------------|
G|---------------------------------------------------------------------------|
D|-4-4-4-4-4-4-4-4-4-4-4-4-7-7-7-4-5-5-5-5-5-5-5-5---------------------------|
A|-5-5-5-5-5-5-5-5-5-5-5-5-5-5-5-5-5-5-5-5-5-5-5-5---------------------------|
E|---------------------------------------------------------------------------|

GUITAR_2 
e|--14~-10~-------------------14~----------|
B|----------10~--10-10-10-10------15~------|
G|------------------------------------14~--|
D|-----------------------------------------|
A|-----------------------------------------|
E|-----------------------------------------|

GUITAR_1 ENTERS
e|-----------------------------------------------------------|
B|-----------------------------------------------------------|
G|------------------------------------0-------------0--------|
D|----4---4h5-------4---4h5---------0---0---------0---0------|
A|--5---5-----7-5-5---5-----7-----0-------0-----0-------0----|
E|----------------------------0-2-----------3-3-----------3--|

e|---------------------------------------------------------|
B|---------------------------------------------------------|
G|--------------------------------------0------------------|
D|------4---4h5-------4---4h5---------0---0----------------|
A|--5-5---5-----7-5-5---5-----7-----0-------0---5-5-5-5-5--|
E|------------------------------0-2-----------3------------|


GUITAR_2 1min:25sec
e|--14~-10~-------------------14~----------|
B|----------10~--10-10-10-10------15~------|
G|------------------------------------14~--|    2x
D|-----------------------------------------|
A|-----------------------------------------|
E|-----------------------------------------|




GUITAR_2 2min:57sec			GUITAR_1 3min:01sec
e|--2-2-2-2-2-2-2-2-3-3-3-3-3-3-3-3--|-------------------------|
B|--3-3-3-3-3-3-3-3-3-3-3-3-3-3-3-3--|-------------------------|
G|--2-2-2-2-2-2-2-2-2-2-2-2-2-2-2-2--|-------------------------|
D|-----------------------------------|-------------------------|
A|-----------------------------------|--4-x-4-4-4-4-5-5-5-5-5--|
E|-----------------------------------|--2-x-2-2-2-2-3-3-3-3-3--|

GUITAR_2 3min:05sec			GUITAR_1 3min:09sec
e|--2-2-3-2-3-2-2-3-2-3-2-3-3-3-3-3--|-------------------------|
B|--3-3-3-3-3-3-3-3-3-3-3-3-3-3-3-3--|-------------------------|
G|--2-2-2-2-2-2-2-2-2-2-2-2-2-2-2-2--|-------------------------|
D|-----------------------------------|-------------------------|
A|-----------------------------------|--4-x-4-4-4-4-5-5-5-5-5--|
E|-----------------------------------|--2-x-2-2-2-2-3-3-3-3-3--|

GUITAR_2 3min:13sec			GUITAR_1 3min:16sec
e|--5-5-5-5-5-5-5-5-5-5-5-5-5-5-5-5--|-------------------------|
B|--3-3-3-3-3-3-3-3-3-3-3-3-3-3-3-3--|-------------------------|
G|--2-2-2-2-2-2-2-2-2-2-2-2-2-2-2-2--|-------------------------|
D|-----------------------------------|-------------------------|
A|-----------------------------------|--4-x-4-4-4-4-5-5-5-5-5--|
E|-----------------------------------|--2-x-2-2-2-2-3-3-3-3-3--|

GUITAR_2 3min:20sec		      GUITAR_1 3min:23sec played 2x
e|--5-5-5-5-5-3-3-5-5-3-3-5-5-3-3-5--|-------------------------|
B|--3-3-3-3-3-3-3-3-3-3-3-3-3-3-3-3--|-------------------------|
G|--2-2-2-2-2-2-2-2-2-2-2-2-2-2-2-2--|-------------------------|
D|-----------------------------------|-------------------------|
A|-----------------------------------|--4-x-4-4-4-4-5-5-5-5-5--|
E|-----------------------------------|--2-x-2-2-2-2-3-3-3-3-3--|

GUITAR_1 3min:31sec
e|-----------------------------------------------------|
B|-----------------------------------------------------|
G|-----------------------------------------------------|
D|-----------------------------------------------------|
A|--4-4-5-4-5-4---4-4-5-4-5-4---4-4-5-4-5-4-7-7-7-7-7--|
E|--2-2-3-2-3-2---2-2-3-2-3-2---2-2-3-2-3-2-5-5-5-5-5--|


| /  slide up
| \  slide down
| h  hammer-on
| p  pull-off
| ~  vibrato
| +  harmonic
| x  Mute note
===============================================================================


Related for Ambisyoso tab