Song name
# A B C D E F G H I J K L M N O P Q R S T U V W X Y Z

Kamikazee - Mundo Ng Komiks tab

Gtr.Legends:
x - DEAD STRING
. - PALM MUTING
b - BEND

Gtr.Tuning:Standard(Normal)
 
Halika tuloy ka lang,pumasok ka sa aming mundo...
e|---------------|
B|-444-444-333---|
G|---------------|
D|---------------|
A|---------------|
E|---------------|
   ... ... ...

Chorus:
Sa komiks,sa komiks...
e|-----------------------------------------|
B|-----------------------------------------|
G|-4444444--3333333-222-333----------------|
D|---------------------------xxx--99--55---|
A|---------------------------xxx--99--55---|
E|---------------------------xxx--77--33---|
   .......  ....... ... ...


Verse:
Sa komiks pwede ka mangarap...
e|---------------------------------      ----------------|
B|--------------------------------- 2x   ----------------|
G|--------------------------------- Then ----------------|
D|-99999999999--888888--777-66-88--      --xxx--99--55---|
A|---------------------------------      --xxx--99--55---|
E|---------------------------------      --xxx--77--33---|
  . . . . . .   ......  ... .. ..

Pre-Chorus:
e|--------------------------|
B|--------------------------|
G|---11-10---------11-10b---| 2x
D|-9-------10b--10----------|
A|--------------------------|
E|--------------------------|

Repeat Chorus:

Before Verse 2:
e|--------|
B|--------|
G|--------|
D|--xxx---|
A|--xxx---|
E|--xxx---|

Repeat Verse 2:
Sa komiks may hatid na drama.....

Repeat Pre-Chorus:
Repet Chorus:

Bridge prt.1:
Gtr.1:Play the Pre-chorus 4x
Gtr.2:
e|--------------|
B|--------------|
G|--------------|
D|--xxxxxxxxx---|
A|--xxxxxxxxx---|
E|--xxxxxxxxx---|

Bridge prt.2:
Halika na...
e|------------------------------------------------------|
B|------------------------------------------------------| Listen to
G|------------------------------------------------------| the song well
D|------------------------------------------------------| for timing...
A|--7777-7777-8888-7777---5555--7777--7777--8888-7777---|
E|------------------------------------------------------|
    .... .... .... ....   ....  ....  ....  .... ....

Outro Chorus:
Chorus:
Sa komiks,sa komiks...
e|---------------------------    -------------------|
B|---------------------------    -------------------|
G|-4444444--3333333-222-333--    -444-444-444-444---|
D|---------------------------    -------------------|
A|---------------------------    -------------------|
E|---------------------------    -------------------|
   .......  ....... ... ...       ... ... ... ...

End.
Tap to rate this tab
# A B C D E F G H I J K L M N O P Q R S T U V W X Y Z