Guitaretab - guitar tabs
Song name
# A B C D E F G H I J K L M N O P Q R S T U V W X Y Z

Kamikazee - First Day High tab

Song:First Day High
Album:Maharot(Album Repackage)
Theme Song:Rexona
Artist:Kamikazee
Date Tabbed:May,2006
Guitar Tabber:Ryan Manongdo/16/m/Montalban Rizal
              no_falter0X@yahoo.com(Friendster&YM)

For your questions or suggestions,just post in friendster comment,PM or mail me.

Gtr.Legends:
~ - LET IT RING
. - PALM MUTING
x - DEAD STRING
/ - SLIDE

Gtr.Effect:Metal Panel
Gtr.Tuning:Standard(Normal)

Intro:
Do a Pick Slide 
e|------------------------------------------| Do this fast
B|------------------------------------------| 
G|------------------------------------------| Then
D|-9-9--8-8--6-6----------------------------| 
A|---------------9-9---7-7--6-6--7-7--9-9---| 
E|------------------------------------------|

First Day High!!
e|-------------------------------| 
B|-------------------------------| 
G|-9-9---8-8--6-6----------------|
D|----------------9-9----4-4-4---|
A|-----------------------4-4-4---|
E|-----------------------2-2-2---|
                         . . .                          

Chorus 1:
Nasasabik sa unang araw ng iskuwela...
Gtr.1
e|------------------------P---| 
B|------------------------A---| 
G|------------------------U---|
D|-999999--666666--22222-4S---|
A|-999999--666666--22222-4E---|
E|-777777--444444--00000-2D---|
                         .
Gtr.2
e|------------------------P---| 
B|------------------------A---| 
G|-444444444444444444444--U---|
D|-xxxxxxxxxxxxxxxxxxxxx-4S---|
A|-222222222222222222222-4E---|
E|-----------------------2D---|
                          .

Verse 1:
First day ng iskul laging may kaba...
e|----------------------------------------------| 
B|-----4---------5----------8------------9-10---|   
G|---4---4-----6---6------8---8-------10--------| 2x
D|-4-------4/6--------6/8--------8/10-----------|
A|----------------------------------------------|
E|----------------------------------------------|

Lakas ng loob hanapin ang ka tropa...
e|------------------------------------------------| 
B|-----4---------5----------8---------10--10-10---|   
G|---4---4-----6---6------8---8-------10--10-10---| 
D|-4-------4/6--------6/8--------8/10-------------|
A|------------------------------------------------|
E|------------------------------------------------|
                                      .   .  .

Repeat Chorus 1:
                         
Pre-Chorus:
Umaapaw sa talino,(do the brainy high)....
Gtr.1                      Gtr.2 Enters
e|-----------------------  ----------------------| 
B|-----------------------  ----------------------| Repeat  
G|--444------------------  -1111-99-1111-99-11---| Many Times
D|--444--222--666--444---  --x-x-xx--x-x-xx--x---|
A|--222--222--666--444---  --9-9-77--9-9-77--9---|
E|-------000--444--222---  ----------------------|

Repeat the Intro:
 
Nasasabik sa unang araw ng iskuwela...
Gtr.1
e|--------------------------------| 
B|--------------------------------| 
G|--------------------------------|
D|-999999--666666--22222--4-4-4---|
A|-999999--666666--22222--4-4-4---|
E|-777777--444444--00000--2-2-2---|
                          . . .
Gtr.2
e|--------------------------------| 
B|--------------------------------| 
G|-444444444444444444444----------|
D|-xxxxxxxxxxxxxxxxxxxxx--4-4-4---|
A|-222222222222222222222--4-4-4---|
E|------------------------2-2-2---|
                          . . .                            
[ Tab from: http://www.guitaretab.com/k/kamikazee/72747.html ]
Chorus 2:
Iba't iba ang hilig..
Gtr.1
e|----------------------------| 
B|----------------------------| 
G|----------------------------|
D|-999999--666666--22222--4---|
A|-999999--666666--22222--4---|
E|-777777--444444--00000--2---|
                          .
Gtr.2
e|---------------------------------------| 
B|---------------------------------------| 
G|-444444--666--888--11-11-11-11-11------|
D|-xxxxxx--xxx--xxx---x--x--x--x--x--4---|
A|-222222--444--666---9--9--9--9--9--4---|
E|-----------------------------------2---|
                                     .

Verse:2
Taas ng noo hwag mag-alala...
e|----------------------------------------------| 
B|-----4---------5----------8------------9-10---|   
G|---4---4-----6---6------8---8-------10--------| 
D|-4-------4/6--------6/8--------8/10-----------|
A|----------------------------------------------|
E|----------------------------------------------|

Kumaway huwag kalimutang ngumiti...  (HI)
e|-----------------------------------------| 
B|-----4---------5----------8---------10---|   
G|---4---4-----6---6------8---8-------10---| 
D|-4-------4/6--------6/8--------8/10------|
A|-----------------------------------------|
E|-----------------------------------------|
                                      .

Lakas ng loob hanapin ang ka tropa...
e|------------------------------------------------| 
B|-----4---------5----------8---------10--10-10---|   
G|---4---4-----6---6------8---8-------10--10-10---| 
D|-4-------4/6--------6/8--------8/10-------------|
A|------------------------------------------------|
E|------------------------------------------------|
                                      .   .  .

Repeat Chorus 1:

Repeat Pre-Chorus:

Repeat Chorus 1 and 2:

Bridge:
F-I-R-S-T  D-A-Y  first day high....
e|---------------------| 
B|---------------------| 
G|---------------------|
D|-xx-xx-xx-xx-xx-xx---|
A|-xx-xx-xx-xx-xx-xx---|
E|-xx-xx-xx-xx-xx-xx---|

Repeat Chorus 1 and 2:

Outro:
First Day High...        First Day high
e|---------------------  --------------------------| 
B|---------------------  --------------------------| 
G|--444----------------  --444----------------4~---|
D|--444--222--666--4---  --444--222--666--444-4~---|
A|--222--222--666--4---  --222--222--666--444-2~---|
E|-------000--444--2---  -------000--444--222------|
                   .                    

End...

First Day High Lyrics: 
  
Chorus 1:
Nasasabik sa unang araw ng eskwela
Taas kamay with confidence
Letís do the first day high

Verse 1:
First day of school laging may kaba
Sinu ba naman gustong mag-isa
Sana may cute na makatabi
May bagong kaibigan pagtapos ng klase
Lakas loob hanapin ang katropa
Sumabay sa saya
Letís do the first day high

Repeat Chorus 1:

Pre-Chorus:
Umaapaw sa talino
(Do the Brainy high)
Kung mayaman si papa
(Do the Sosy high)
Pagmahilig ka sa sports
(Do the MVP high)
Kung cool ka at astig
(Do the Rebel high)
Pag solid sa bait
(Do the Nice Guy high)
Itaas ang kamay
Letís do the first day high
First day high

Repeat Chorus 1:

Chorus 2:
Ibaít iba ang hilig
Magkakasundo sa trip
Kung gusto mo sumama
Welcome ka mag first day high

Verse 2:
Taas noo wag kang mag-alala
Tiwala sa sarili wag ka nang mahihiya
Kumaway wag kalimutang ngumiti
Sigurado sa iyo ay may babati(HI)
Lakas loob hanapin ang katropa
Itaas ang kamay
Letís do the first day high

Repeat Chorus 1:

Repeat Pre-Chorus:

Repeat Chorus 1 and 2:

Bridge:
F-I-R-S-T D-A-Y First day high 4x

Repeat Chorus 1 and 2:

First day high, first day high

Related for First Day High tab