Song name
# A B C D E F G H I J K L M N O P Q R S T U V W X Y Z

Kamikazee - Ikaw Parim Pala tab

Song:Ikaw Parim Pala
Album:Kamikazee
Artist:Kamikazee
Date Tabbed:May,2006
Guitar Tabber:Ryan Manongdo/16/m/Montalban Rizal
              forget_013@yahoo.com.ph(Friendster&YM)
              09229015724(Sun Cell)

kamikazee@yahoo.groups.com
www.rakista.com
www.brutalgrace.com

Gtr.Legends:
~  - LET IT RING
x  - DEAD STRING
.  - PALM MUTING
h  - HAMMER-ON
/\ - SLIDE

Gtr.Tuning:Standard(Normal)

Intro prt.1:
Gtr.1:
e|---------------------      -------|
B|---------------------      -------|
G|--7~---7~---7~---7~-- Then -------|
D|--7~---7~---7~---7~--      --7~---|
A|--5~---5~---5~---5~--      --7~---|
E|---------------------      --5~---|

Gtr.2:
e|---------------------      -------|
B|---------------------      -------|
G|--------------------- Then -------|
D|--7x7x7x7x7x7x7x7x7--      --7~---|
A|---------------------      --7~---|
E|---------------------      --5~---|
    .................

e|------------------------------------------|
B|------------------------------------------|
G|--7-7-7-7--------------7-7-7-7------------|
D|--7-7-7-7--5-5--7-7----7-7-7-7---5-5--5---|
A|--5-5-5-5--5-5--7-7----5-5-5-5---5-5--5---|
E|-----------3-3--5-5--------------3-3--5---|
                                        .

Intro prt.2
Gtr.1:
e|--------------------------------------------|
B|--------------------------------------------|
G|--777777--------7777---77777----------------|
D|--777777--5555--7777---77777--5555--7-5-7---|
A|--555555--5555--7777---55555--5555--7-5-7---|
E|----------3333--5555----------3333--5-3-5---|
                                      . . .

Gtr.2:
e|-------------------------------------------------|
B|-------------------------------------------------|
G|-------------------------------------------------|
D|--4-7-9-7-7--4-5-4-2~---4-7-9-7-7--4-5---7-5-7---|
A|-----------------------------------------7-5-7---|
E|-----------------------------------------5-3-5---|                                      . . .
                                           . . .

Verse:
Hoy pare may bagong balita ako...
Gtr.1
e|---------------------|
B|---------------------|
G|-77--77--------------| 4x Then
D|-77--77-77--55--77---|
A|-55--55-77--55--77---|
E|--------55--33--55---|
   ..  ..     ..  ..

Gtr.2 Enters:
Akala ko tapos na ang istorya...
e|--------------------------------|
B|--7h8--7h8--7h8--7h8-7h8---10---| 
G|-7----7----7----7----7---7------| 2x
D|--------------------------------|
A|--------------------------------|
E|--------------------------------|

Gtr.1:
e|------------------------------------------|
B|------------------------------------------|
G|--77777-----------------77777-------------|
D|--77777--55555--77777---77777--5555--7~---|
A|--55555--55555--77777---55555--5555--7~---|
E|---------33333--55555----------3333--5~---|

Gtr.2:
e|----------------------------------------------|
B|----------------------------------------------|
G|----------------------------------------------|
D|--4-7-9-7-7--4-5-4-2~---4-7-9-7-7--4-5-4-7~---|
A|----------------------------------------------|
E|----------------------------------------------|                                      . . .
                                          
Repeat Verse:
Ngaun tuloy do ko alam kung paano ba....

Pre-Chorus:
Kung bukas man mag-kita...
e|---------------------------|
B|---------------------------|
G|--------------7777---------|
D|--9999--5555--7777--7777---|
A|--9999--5555--5555--7777---|
E|--7777--3333--------5555---|

Sana masabi sa kanya...
e|--------------------------------|
B|--------------------------------|
G|--------------77-6-7--77-6-7----|
D|--9999--5555--77-6-7--77-6-7----|
A|--9999--5555--55-4-5--55-4-5----|
E|--7777--3333--------------------|
                .. . .  .. . .

Ang tanging panalangin ko...
e|----------------------------|
B|----------------------------|
G|--------------7777----------|
D|--xxx9--5555--7777--7777----|
A|--xxx9--5555--5555--7777----|
E|--xxx7--3333--------5555----|

Isa pang pag-kakataon sayo...
e|-----------------------|
B|-----------------------|
G|-----------------------|
D|--x999--5555--777777---|
A|--x999--5555--777777---|
E|--x777--3333--555555---|

Chorus:
Ikaw Parim Pala....
Gtr.1
e|---------------------------|
B|---------------------------|
G|--7777---------------------| 4x Then
D|--7777--7777--9999--5555---|
A|--5555--7777--9999--5555---|
E|--------5555--7777--3333---|

Gtr.2 Enters:
e|-------------------------------|
B|-------------------------------|
G|--77777777777777777777777777---|
D|--xxxxxxxxxxxxxxxxxxxxxxxxxx---|
A|--55555555555555555555555555---|
E|-------------------------------|

Before the Solo:
e|-------------------------------|
B|-------------------------------|
G|-------------------------------|
D|--7777777--111111--9-7-5-7-5---|
A|--7777777--111111--9-7-5-7-5---|
E|--5555555--999999--7-5-3-5-3---|
                     . . . . .
Solo:
Gtr.1:
e|----------------------|
B|----------------------|
G|--77777---------------| 4x
D|--77777--5555--7777---|
A|--55555--5555--7777---|
E|---------3333--5555---|

Gtr.2:
e|-----------------------|
B|-----------------------|
G|--7b-7b--12-11-10-7b---| Then
D|-----------------------|
A|-----------------------|
E|-----------------------|

Do this fast
e|---------------------------        ------|
B|--------------------------- Repeat -12b--|
G|-12-11-12-16--12-11-12-15-- 4x     ------|
D|--------------------------- Then   ------|
A|---------------------------        ------|
E|---------------------------        ------|

Repeat Pre-Chorus:

Repeat Chorus:

Before the Instrumental Solo:
e|------------|
B|------------|
G|------------|
D|--7777777---|
A|--7777777---|
E|--5555555---|

Instrumental Solo Part 1:
Gtr.1:
e|---------------------|
B|---------------------|
G|--7777777777777777---|
D|--7777777777777777---|
A|--5555555555555555---|
E|---------------------|

Gtr.2 Enters:
e|-------|
B|-------|
G|--7~---|
D|--7~---|
A|--5~---|
E|-------|

Intrumental Solo prt.2:
Notes:Listen to the song properly in this part for timing.

Gtr.1:
e|-------------------------------|
B|-------------------------------|
G|--77777------------------------| 4x
D|--77777--77777--99999--55555---|
A|--55555--77777--99999--55555---|
E|---------55555--77777--33333---|

Gtr.2:
e|----------------------------------------|
B|----------------------------------------| 
G|--77777/99999/11111/12121212-12\11/12---| 
D|--xxxxx-xxxxx-xxxxx-xxxxxxxx--x--x--x---| 
A|--55555/77777/99999/10101010-10\-9/10---|
E|----------------------------------------|

e|------------------------------------------------------|
B|------------------------------------------------------|
G|-141414141414141414\101010\111111/12121212/14141414---|
D|-xxxxxxxxxxxxxxxxxx-xxxxxx--x-x-x-xxxxxxxx-xxxxxxxx---|
A|-121212121212121212\101010\-9-9-9/10101010/12121212---|
E|------------------------------------------------------|

e|-----------------------------------------------------------------------|
B|-----------------------------------------------------------------------|
G|-141414\16\15\14--141414\16\15\14--141414\16\15\14\12121212\11111111---|
D|-xxxxxx-xx-xx-xx--xxxxxx-xx-xx-xx--xxxxxx-xx-xx-xx-xxxxxxxx--x-x-x-x---|
A|-121212\14\13\12--121212\14\13\12--121212\14\13\12\10101010\-9-9-9-9---|
E|-----------------------------------------------------------------------|

e|-----------------------------|
B|-----------------------------|
G|-9/11111111/1212/1313/1414---| Repeat 4x
D|-x--x-x-x-x-xxxx-xxxx-xxxx---|
A|-7/-9-9-9-9/1010/1111/1212---|
E|-----------------------------|

Instrumental Solo prt.3:
Gtr.1
e|--------------------------------|
B|--7h8--7h8--7h8--7h8-7h8---10---| Repeat 
G|-7----7----7----7----7---7------| Many Times
D|--------------------------------|
A|--------------------------------|
E|--------------------------------|

Gtr.2 Enters:
e|-----------------------------------------------|
B|-----------------------------------------------|
G|--7~---7-7-7-7--------------7-7-7-7------------|
D|--7~---7-7-7-7--5-5--7-7----7-7-7-7---5-5--5---|
A|--5~---5-5-5-5--5-5--7-7----5-5-5-5---5-5--5---|
E|----------------3-3--5-5--------------3-3--5---|
                                             .

Instrumental Outro:
Gtr.1
e|----------------------      ----------------------------|
B|---------------------- 3x   ----------------------------|
G|--777777-------------- Then -77777----------------------|
D|--777777--5555--7777--      -77777--5555--7-7-7-7-7-7---|
A|--555555--5555--7777--      -55555--5555--7-7-7-7-7-7---|
E|----------3333--5555--      --------3333--5-5-5-5-5-5---|
                                            . . . . . .

Gtr.2
e|---------------------------|
B|---------------------------| 2x
G|-7-9-11-12-14--------------| Then
D|-x-x--x--x--x---4-5-4-7b---|
A|-5-7--9-10-12--------------|
E|---------------------------|

e|----------------------------------------------------------|
B|----------------------------------------------------------|
G|----------------------------------------------------------|
D|--4-7-9-7-7--4-5-4-2~---4-7-9-7-7--4-5-4--7-7-7-7-7-7-7---|
A|------------------------------------------7-7-7-7-7-7-7---|
E|------------------------------------------5-5-5-5-5-5-5---|
                                            . . . . . . .

Last Chord:
e|-------|
B|-------|
G|--7~---|
D|--7~---|
A|--5~---|
E|-------|

End...

Lyrics by forget_013
Visit www.rakista.com

Verse:
Hoy pare may bagong balita ako
Nakasalubong ko kanina dating syota ko
Akala ko tapos na ang storya
Nakita ka biglang lahat ay naalala
Ngayon tuloy di ko alam paano ba?
Nagkandaloko na tawagan ko kaya
Paano kung mayroong ibang kasama
Bahala na basta dapat na malaman nya

Pre-Chorus:
Kung bukas man magkita sana masabi sa kanya
Ang tanging panalanagin ko isa pang pag kakataon
Manliligaw uli sayo
Hanggang sa dulo ng mundo

Chorus:
Ikaw parimpala
Nabihag ng puso ko sinta
Ikaw parimpala wala ng iba


  I would like to greet first offcourse my ONLY ONLY ONE,then;my relatives,my
friends on Montalban(Brgy.Balite Espiritu Subd.),My traitor friends in our school
NSDAPS San Mateo Rizal,Cocklosas,Cocklisay.Cocktabijan,Cockpistrano,Cockyatano,Cockruz,
Franciscock,Picock,Fuckmittan,Redick,Simbulbulan,Frondosuso,Bayagin,Titesta,Aldick,and many
moore,our band club(COMBO-RATS),Project X,To all my txt mates and other companie,Red Porn Records,
My friends in YM and Friendster,and most of all,hi to God..

Padre Garrote:          Extra:

Dino Testa:Vocals       Andrei Frondoso:Xylophone,Triangles,Flute and Tamborine           
Edy Capistrano:Gtr.1    Mike Alvez:Sub-Guitar                               
Jiro Uezono:Gtr.2      
Ryan Manongdo:Bass       
Aeroll Cayetano:Drums   
Tap to rate this tab
# A B C D E F G H I J K L M N O P Q R S T U V W X Y Z