Guitaretab - guitar tabs
Song name
# A B C D E F G H I J K L M N O P Q R S T U V W X Y Z

Kamikazee - Itanong Mo tab

Song Name: itanong mo sa akin
Band Name: Kamikazee
EarTab by: Marc Gerryl B. Nadua...

..itanong mo sakin ahhhhh
.. nagustuhan ko kc song nato enjoy po godbless




INTRO:
eb|--------------------------------|
Bb|--------------------------------|
Gb|--------------------------------|
Db|--------------------------------|
Ab|--10----10-----7-----3----------|
Eb|---8-----7-----5-----1----------|

eb|-------------------------------------|
Bb|-------------------------------------|
Gb|-------------------------------------|
Db|-------------------------------------|
Ab|--10------10-------7-----3-----------|
Eb|---8-------7-------5-----1-----------|
[ Tab from: http://www.guitaretab.com/k/kamikazee/74573.html ]
       Aahh.. ha.. hAAAH      haaaah….

VERSE:


eb|-------------------------------------|
Bb|-------------------------------------|
Gb|-------------------------------------|
Db|-------------------------------------|
Ab|--10------10-------7-----3-----------|
Eb|---8-------7-------5-----1-----------|

 Itanong mo sa akin      ang question  mo

eb|-------------------------------------|
Bb|-------------------------------------|
Gb|-------------------------------------|
Db|-------------------------------------| 
Ab|--10------10-------7-----3-----------|
Eb|---8-------7-------5-----1-----------|

       Aahh.. ha.. haaaaAH      haaaah….

Ulitin mn to ng 3x that’s ol. . pkrate po heehee 


Related for Itanong Mo tab
×
Itanong Mo