Song name
# A B C D E F G H I J K L M N O P Q R S T U V W X Y Z

Kamikazee - Mamaw tab

Help us improve GuitareTab! Take a short survey!
MAMAW
contributed by: MJDM


Gtr.Legends:
~ - LET IT RING
x - DEAD STRING
. - PALM MUTING

Chords for Acoustic:
Intro prt.1,Verse and Bridge prt.1 G(PLUCKING)
Intro prt.2 and Outro D,B,G,A,B,C#
Pre-Chorus,Chorus and Bridge prt.2 D,B,G,A

Gtr.Tuning:Standard(Normal)

Intro prt 1:
G
e|-----0----0----0-----------------0-----0-----0-------|
B|------3----3----3----3-------3-----3-----3-----3-----|
G|-----------------------------------------------------|
D|-0-0----0----0----0----------------------------------|
A|--------------------------2----2-----2-----2-----2---|
E|-----------------------------------------------------|
   .

e|--------0------0------0------------------0----3~---|                     
B|---3------3------3------3----3-----3-------3--0~---|                     
G|---------------------------------------------------|      
D|---------------------------------------------------|                     
A|---------------------------------0----0------------|
E|-3---3------3-------3------3-----------------------|

Intro prt 2:
Gtr 1
e|---------------------------------------------------------|
B|---------------------------------------------------------|  
G|-x--77777777777777777777777777777777--9999--1111--9999---|  
D|-x--xxxxxxxxxxxxxxxxxxxxxxxxxxxxxxxx--xxxx--xxxx--xxxx---| 1x   
A|-x--55555555555555555555555555555555--7777--9999--7777---|  
E|-x-------------------------------------------------------|

Gtr.2
D,B,G,A,B,C#m
e|-x-------------------------------------------------------|
B|-x-------------------------------------------------------| 
G|-x-777777777--444444444----------------------------------| 1x 
D|-x-777777777--444444444-0-5555555--7777777--9999--7777---|  
A|-x-555555555--222222222-0-5555555--7777777--9999--7777---|  
E|-x----------------------0-3333333--5555555--7777--5555---|

Gtr.1 Lead:
e|----------------------------------------------------------|
B|----------------------------------------------------------|  
G|----------------------------------------------------------|  4x 
D|-14-14-14--12-12-12---14-14-14---12-12-12---14-14--12-----|  
A|----------------------------------------------------------|
E|----------------------------------------------------------|

Gtr.2
D,B,G,A,B,C#m
e|-----------------------------------------------|
B|-----------------------------------------------|  
G|--777777777--444444444-------------------------|  1x
D|--777777777--444444444-0-5555555--7777777777---|  
A|--555555555--222222222-0-5555555--7777777777---|  
E|-----------------------0-3333333--5555555555---|

Verse:
Sa talahiban ika'y lumitaw,...
Gtr.1
G                                                                   
e|-----0----0---0----0----0---------0----0----0----0---0----|  
B|------3----3---3----3-----3--------3----3----3----3---3---|  
G|----------------------------------------------------------|  
D|---0----0----0---0----0-----------------------------------|  
A|--------------------------------2----2----2----2----2-----|  
E|----------------------------------------------------------|  

e|----0----0-----0----0---0------0-----0------3-----2----3-2-0---|
B|-----3----3-----3----3---3------3-----3------0-----0-----------|
G|---------------------------------------------------------------|
D|---------------------------------------------------------------|
A|-----------------------------0-----0------0-----0--------------|
E|--3----3----3-----3----3---------------------------------------|

Gtr.2(Fill Lead)
e|-----------------      ---------------------------------|
B|-----------------      ---------------------------------|
G|-12-12-12-11-11-- 3x   --12-12-12--11-11--14-14-14-14---|
D|----------------- Then ---------------------------------|
A|-----------------      ---------------------------------|
E|-----------------      ---------------------------------|

Pre-Chorus:
Nung mapansin ko siya...
D,B,G,A
e|------------------------------------------------|
B|------------------------------------------------|
G|-777777777--444444444---------------------------|
D|-777777777--444444444--5555555--7777777777777---|
A|-555555555--222222222--5555555--7777777777777---|
E|-----------------------3333333--5555555555555---|
   .........  .........  .......  .............

Gtr.2(Fill Lead)
e|-----------------      --------------------------------|
B|-----------------      --------------------------------|
G|-12-12-12-11-11-- 3x   --12-12-12--11-11--14-14-14-14--|
D|----------------- Then --------------------------------|
A|-----------------      --------------------------------|
E|-----------------      --------------------------------|

Chorus:
Gtr.1
Baklang sagad sa pangit...
e|-----------------------------------------------|
B|-----------------------------------------------|  
G|--777777777--444444444-------------------------|  1x
D|--777777777--444444444-0-5555555--7777777777---|  
A|--555555555--222222222-0-5555555--7777777777---|  
E|-----------------------0-3333333--5555555555---|

Gtr.2
e|------------------------------------------------------------|
B|------------------------------------------------------------|  
G|------------------------------------------------------------|  4x 
D|-14-14-14--12-12-12---14-14-14---12-12-12---14---12-12-12---|  
A|------------------------------------------------------------|
E|------------------------------------------------------------|

Repeat Verse:

Repeat Pre-Chorus:

Repeat Chorus: 

Bridge prt.1:Play the Verse 1

Bridge prt.2:
Tatalon na lang ako sa bangin.....
D,B,G,A
Gtr.1
e|-----------------------------------------------------|
B|-----------------------------------------------------|
G|--7---7777777--444444444-----------------------------|
D|--7---7777777--444444444--55555555555----777777777---|
A|--5---5555555--222222222--55555555555----777777777---|
E|--------------------------33333333333----555555555---|
    .   .......  .....           ......    .........

Gtr.2 Enters:
e|-----------------      ---------------------------------|
B|-----------------      ---------------------------------|
G|-12-12-12-11-11-- 1x   --12-12-12--11-11--14-14-14-14---|
D|----------------- Then ---------------------------------|
A|-----------------      ---------------------------------|
E|-----------------      ---------------------------------|

napapansin ko s'ya, na may milagrong ginagawa...
D,B,G,A
Gtr.1
e|-------------------------------------|
B|-------------------------------------|
G|---7777777--444444444----------------|
D|---7777777--444444444--55555555555---|
A|---5555555--222222222--55555555555---|
E|-----------------------33333333333---|

Gtr.2:
e|---------------------------------------------|
B|---------------------------------------------|  
G|-12-12-12-11-11-11-12-12-12-11-11-11-12-11---|  4x
D|---------------------------------------------|
A|---------------------------------------------|
E|---------------------------------------------|

lagot ka mamaya...
e|--------------|
B|--------------|
G|--------------|
D|--7~--77777---|
A|--7~--77777---|
E|--5~--55555---|

Repeat the Pre-chorus:
Repeat the Chorus 2x:

The Last Chord:
Gtr.1          Gtr.2 
e|------------  ------------------------|
B|------------  ------------------------|
G|--------7~--  ------------------------|
D|-77777--7~--  -14-14-14-14--14--12~---|
A|-77777--5~--  ------------------------|
E|-55555------  ------------------------|

End..

Mamaw Lyrics

D
Sa talahiban ika'y lumitaw,
Bm                              G
 sumama ang hangin, ako'y napa-iling,
                       A
 tao ngaba o kabayong mahiwaga;

Refrain:
D                          Bm
 Nung mapansin ko siya, ay may milagrong ginagawa,
 G                               A
 mang-aagaw siya ng lakas, ingat ka kapag nakilala ka;

Chorus:
D                    Bm
 Kahit na tinatawanan, marami yatang pumapatol diyan,
G                                  A
 kapag ika'y napagti-tripan, bibigyan n'ya ng limandaan,
     D                  Bm
 Baklang sagad sa pangit, ang kagandaha'y pinipilit,
G                               A
 sa likod ay mukhang mama, pag-humarap ay mamamw;

Verse 2:
D                              Bm
 Ang swerte n'ya namang bading, lagi s'yang may kasiping,
  G                        A
 kung takot sa kanya, babayaran lang niya;

Refrain 2:
D                       Bm
 Napapansin ko s'ya, na may milagrong ginagawa,
   G                             A
 mang-aagaw s'ya ng lakas, ingat ka kapag nakilala ka;

(Repeat Chorus)
(Repeat Intro 1x only)

Coda:
D                              Bm
 Tatalon na lang ako sa bangin, 'di ko s'ya kayang mahalin,
G                             A
 Pero kung walang-wala ka, sige pumatol ka;

Refrain 3:
D                       Bm
 napapansin ko s'ya, na may milagrong ginagawa,
  G                          A(pause)
 mang-aagaw s'ya ng lakas, lagot ka mamaya;

Chorus:
D                     Bm
 Kahit na tinatawanan, marami yatang pumapatol diyan,
G                                 A
 kapag ika'y napagti-tripan, bibigyan n'ya ng limandaan,
D                        Bm       (break) Bm
 Baklang sagad sa pangit, sa mga gay bar sumisilip,
G                               A
 sa likod ay mukhang mama, pag humarap ay mamaw,
D                        Bm
 Baklang sagad sa pangit, ang kagandaha'y pinipilit,
G                               A
 sa likod ay mukhang mama, pag-humarap ay mamaw;


FOR MORE DETAIL:
email me @ mjdm_26@yahoo.com
OR Visit me at University Of St. Louis Tuguegarao

Related for Mamaw tab