Song name
# A B C D E F G H I J K L M N O P Q R S T U V W X Y Z

Kamikazee - Pepeng Maghapon tab

pepeng maghapon
kamikazee
tabbed by:jimmyjon r.azul/16/m/antipolo city
jimmyjon03@yahoo.com squall3_leonhart23@yahoo.com gigamax023@yahoo.com


Hi sa mga IJAIANS!!! sa mga friends koh! sa crush ko! add niyo ko sa friendster

ito yung pinaka makulet kong nakapa!
hope you'll like it because ang cute nyan!
ito yung kanta pagkatapos ng KKK!!!
pakinggan niyo nalang sa cd para sa timing!
cge mga tol! gudluck nlng!
nga pala, kung pwede pakirate na rin! thanks!!!!!!
...:::R ...:::O ...:::C ...:::K ...:::O ...:::N ...:::!


E||-88--66--88--66-55-|
B||-------------------|
G||-------------------|(4x)
D||-------------------|
A||-------------------|
E||-------------------|

             
E||---12~--12--1111-9---|7-9--676767--------|
B||---12~--12-----------|-------------------|
G||---------------------|-------------------|	
D||---------------------|-------------------|
A||---------------------|-------------------|
E||---------------------|-------------------|

|6-7------6-7------------6-7-----------|
|----7-9------7-9------------7-9-------|
|--------------------------------------|
|--------------------------------------|
|--------------------------------------|
|--------------------------------------|

E||-99-77-79-6--------|-------------------|-------------------|
B||-------------------|-99-77-55----------|--3/5--5-777-5-3---|
G||-------------------|----------3--------|-------------------|
D||-------------------|-------------------|-------------------|
A||-------------------|-------------------|-------------------|
E||-------------------|-------------------|-------------------|

             
E||-------------------|-------------------|
B||-5-77-5-3----------|--3-55-3-----------|
G||-------------------|-------------------|
D||-------------------|-------------------|
A||-------------------|-------------------|
E||-------------------|-------------------|

|-12-----------131415-1312-------------|
|-12-1214131516-----------1214---------|
|--------------------------------------|
|--------------------------------------|
|--------------------------------------|
|--------------------------------------|

E||-1919-17-19-17-151413~-19-17-15--------------------------|
B||--------------------------------19-17-15-14-13~----------|
G||---------------------------------------------------------|
D||---------------------------------------------------------|
A||---------------------------------------------------------|
E||---------------------------------------------------------|

             
E||----------------12-13-------21-19-17-15----|
B||-12-13-14-15-16----------------------------|
G||-------------------------------------------|
D||-------------------------------------------|
A||-------------------------------------------|
E||-------------------------------------------|

|1919-1717-1515-14~---------------|
|---------------------15-13-12~---|
|---------------------------------|
|---------------------------------|
|---------------------------------|
|---------------------------------|

E||--12--12---11~-----|
B||--12--11-1111~-----|
G||-------------------|
D||-------------------|
A||-------------------|
E||-------------------|

|---------------------------------------------------------|
|-1010-88-7---1010-88-7-8-10---1010-88-7---1010-88-7-8-10-|
|---------------------------------------------------------|
|---------------------------------------------------------|
|---------------------------------------------------------|
|---------------------------------------------------------|

E||---------------------------------------------------------|
B||-98-67-45~--98-67-4567-1111101098910-1413121213141516----|
G||---------------------------------------------------------|
D||---------------------------------------------------------|
A||---------------------------------------------------------|
E||---------------------------------------------------------|

             
E||-14131212131415--17161515-20212223~-------------------------------|
B||------------------------------------------------------------------|
G||------------------------------------------------------------------|
D||------------------------------------------------------------------|
A||------------------------------------------------------------------|
E||------------------------------------------------------------------|

~{END}~

...:::J ...:::I ...:::M ...:::M ...:::Y ...:::J ...:::O ...:::N ...:::!
...:::R ...:::O ...:::C ...:::K ...:::O ...:::N ...:::!
Tap to rate this tab
 
# A B C D E F G H I J K L M N O P Q R S T U V W X Y Z