Song name
# A B C D E F G H I J K L M N O P Q R S T U V W X Y Z

Kampfar - I Ondskapens Kunst tab

                                      KAMPFAR



Tabbed by: dupree79

Band:  Kampfar
Song:  I Ondskapens kunst
Album: Fra Underverdenen (2006)
Label: Napalm Records

Tuning: Standard Tuning (E-A-D-g-b-e)

Info: Main Guitar Intro



e|---------------------------|     
B|---------------------------|
G|-----5--4h5--4-------2-----|
D|----------------5/7--3--5--|
A|--0------------------------|    *let the A ring
E|---------------------------|


e|---------------------------|
B|---------------------------|
G|-----5--4h5--4-------2-----|
D|----------------5/7--3--2--|
A|--0------------------------|
E|---------------------------|


e|---------------------------|     
B|---------------------------|
G|-----5--4h5--4-------2-----|
D|----------------5/7--3--5--|
A|--0------------------------|
E|---------------------------|


e|---------------------------|     
B|------------------------0--|
G|-----5--4h5--4-------2-----|
D|----------------5/7--3-----|
A|--0------------------------|
E|---------------------------|


repeat 3 times




dupree79 /  07.01.2010 
Tap to rate this tab
 
# A B C D E F G H I J K L M N O P Q R S T U V W X Y Z