Kandace Ferrel - Almost Home chords

Highlighted       Show chord diagrams
-------------------------------------------------------------------------
ALMOST HOME  Kandace Ferrel                        www.kandaceferrel.com
-------------------------------------------------------------------------
Tabbed by: Kengus

Standard tuning                                              Em7 = 022033
Capo on first fret!                                        Cadd9 = x32033
                                                               G = 320033
INTRO                                                     F#m#5* = 200233
G  GM7add2*  G6/E  GM7/D
G  GM7add2*  G6/E  GM7/D

VERSE I
          G        GM7add2*  G6/E  GM7/D
When you give all you can, 
        G         GM7add2*  G6/E  GM7/D
and you feel nothing's good enough
         G        GM7add2*  G6/E  GM7/D
When you don't understand, 
         G         GM7add2*    G6/E
why your life is in someone's hands
GM7/D         C                Dadd4add9
 Don't let it bring you down tonight

CHORUS (strumming)
                Em7          Cadd9           G     F#m#5*
Just close your eyes, you'll see, a beautiful destiny
             Em7  Cadd9          G         F#m#5*
This will be over soon, this I do promise you
              Em7               Cadd9
You're coming back, you're almost here

INTERLUDE
   G          GM7add2*     G6/E       GM7/D        G          GM7add2*
e|-----------------------------------------------------------------------|
B|-------0----------0------------0----------0------------0----------0----|
G|---0-----0----0h2---2p0----0-----0----0-------0----0-----0----0h2---2p0|
D|-5---5------4------------2---2----------4---4----5---5------4----------|
A|------------------------------------5----------------------------------|
E|-----------------------------------------------------------------------|
   G6/E       GM7/D
e|---------------|
B|-------0-------|
G|---0-----0-----|  continue this pattern in verse II as well
D|-2---2------0--|
A|---------------|
E|---------------|

VERSE II
        G         GM7add2* G6/E GM7/D
Does it hurt when you cry
         G               GM7add2*  G6/E  GM7/D
from the pain that's been hiding inside?
          G       GM7add2*        G6/E         GM7/D
Does your body feel weak from the lack of your sleep?
       G        GM7add2*      G6/E
Do you ever just want to know why?
GM7/D          Cmaj7            D6
  Don't let it bring you down tonight

VERSE II ending
   GM7/D        Cmaj7                 D6
e|---------------------------------------------|
B|-------0------------0----------0-------0-----|
G|---0-------0----0-----0----0-----0--------2--|
D|-----4---4--------2----------2------0--------|
A|-5------------3----------3-------------------|
E|---------------------------------------------|

CHORUS
                Em7          Cadd9           G     F#m#5*
Just close your eyes, you'll see, a beautiful destiny
                 Em7  Cadd9          G        F#m#5*
And this will be over soon, this I do promise you
              Em7              Cadd9
You're coming back, you're almost home

INTERLUDE
Em7  Cadd9  Em7  Cadd9

CHORUS
                Em7          Cadd9           G     F#m#5*
Just close your eyes, you'll see, a beautiful destiny
                 Em7  Cadd9          G        F#m#5*
And this will be over soon, this I do promise you
              Em7              Cadd9
You're coming back, you're almost home

CHORUS
          Em7          Cadd9              G     F#m#5*
Open your eyes, you'll see, your beautiful destiny
                 Em7  Cadd9          G        F#m#5*
And this will be over soon, this I do promise you
              Em7               Cadd9
You're coming back, you're almost home

OUTRO
   G          GM7add2*     G6/E       GM7/D        G          GM7add2*
e|-----------------------------------------------------------------------|
B|-------0----------0------------0----------0------------0----------0----|
G|---0-----0----0h2---2p0----0-----0----0-------0----0-----0----0h2---2p0|
D|-5---5------4------------2---2----------4---4----5---5------4----------|
A|------------------------------------5----------------------------------|
E|-----------------------------------------------------------------------|
   G6/E       GM7/D        G          GM7add2*     G6/E       GM7/D
e|-----------------------------------------------------------------------|
B|-------0----------0------------0----------0------------0----------0----|
G|---0-----0----0-------0----0-----0----0h2---2p0----0-----0----0-------0| 
D|-2---2----------4---4----5---5------4------------2---2----------4---4--|
A|------------5-----------------------------------------------5----------|
E|-----------------------------------------------------------------------|
   G          GM7add2*     G          GM7/D
e|---------------------------------------|
B|-------0----------0------------0-------|
G|---0-----0----0h2---2p0----0-----0-----|
D|-5---5------4------------2---2------0--|
A|---------------------------------------|
E|---------------------------------------|

=========================================================================
Comment, rate, appreciate!
Tap to rate this tab
 
# A B C D E F G H I J K L M N O P Q R S T U V W X Y Z