Guitaretab - guitar tabs
Song name
# A B C D E F G H I J K L M N O P Q R S T U V W X Y Z

Kane Hodder - Jason Dean Was A Teen Liberator tab

Artist: Kane Hodder
Song: Jason Dean Was a Teen Liberator
Standard Tuning

This is my first tab, that's my excuse for the total suckature of it.

Guitar 1(0:00)
Intro:
e----------------------------╫
B----------------------------╫
G----------------------------╫ Repeat x7
D---------------------2-2-2-2╫
A---2-2--0-2-0--2-2-0--------╫
E----------------------------╫

Guitar 2 (0:05)
After the Intro plays twice:
  B5
e----╫
B----╫
G-4~-╫
D-4~-╫
A-2~-╫
E----╫
Guitar 2 strums some more, I can't really make it out (my musician's ear sucks), but
an E5 and a B5 in there...

Guitar 1 and 2 (0:20)
Screaming part
(Probably wrong)
e------╫
B------╫
G-4--4\╫ Play 2x
D-4--4\╫
A-2--2\╫
E------╫

Guitar 1 and 2 (0:26)
Verse
(Definitely Wrong)
    v^v^v^v   v^v^v^v              v^v^v
e---------------------------------------╫
B---------------------------------------╫
G------------7777777--9-9-9-9\7-77777---╫ 2x
D---7777777--7777777--9-9-9-9\7-77777---╫
A---7777777--5555555--7-7-7-7\5-55555---╫
E---5555555-----------------------------╫
[ Tab from: http://www.guitaretab.com/k/kane-hodder/75585.html ]
Bendy Part (0:39)
e-------------╫
B-------------╫
G-------------╫
D---4b----4bbb╫
A-2-----2-----╫
E-------------╫

Play verse again 4x (0:42)
(yeah, the one I messed up)
    v^v^v^v   v^v^v^v              v^v^v
e---------------------------------------╫
B---------------------------------------╫
G------------7777777--9-9-9-9\7-77777---╫ 2x
D---7777777--7777777--9-9-9-9\7-77777---╫
A---7777777--5555555--7-7-7-7\5-55555---╫
E---5555555-----------------------------╫

Bendy Part Again (1:07)
e-------------╫
B-------------╫
G-------------╫
D---4b----4bbb╫
A-2-----2-----╫
E-------------╫

This time, the bends (Gratuitous Radiohead reference) are followed by a climbing riff
I think starts on F# (Fret numero four on your D string, Einstein). So, do that. Twice.

That's as far as I have figured out. Yes, you started reading this on hopes of learning
to play this song (As though anyone will actually read this), and this tab ends up being
unfinished, and inaccurate... yes, I suck. So, improve upon my tab and submit an updated 
Then I can read it and learn how to play the whole thing. Kay, bye.
Related for Jason Dean Was A Teen Liberator tab