Guitaretab - guitar tabs
Song name
# A B C D E F G H I J K L M N O P Q R S T U V W X Y Z

Kane Roberts - You Always Want It tab

Artist: Kane Roberts
Song: You Always Want It
Album: Saints & Sinners

Tabbed by: Rod Zombie (rodzombie_89@hotmail.com)

Tuning: D



INTRO:

|-----------------------|-3-----5/7\5-----------|
|-----------------------|-3-----------5---------|
|-----2----------2--5~--|-0--5----------6-------|
|-----2---2~--5--2--5~--|-0--5------------------|
|-----0---2~--5--0--3~--|----3------------------|
|-0-3---3-0~--3---------|-3---------------------|
  . .   .

|-----------------------|-3---------------------|
|-----------------------|-3---------------------|
|-----2----------2--5~--|-0-5--5--7-7----5-7----|
|-----2---2~--5--2--5~--|-0-5--5--7-7----5-7----|
|-----0---2~--5--0--3~--|---3--3--5-5----3-5----|
|-0-3---3-0~--3---------|-3---------------------|
  . .   .  



|----------------------------|
|----------------------------|
|----------------------------|
|-----------------7~-5-------| x 2
|-----------------7~-5-------|
|-3-0-0-3-0-0-3-0-5~-3-5-3-0-|
    . .   . .   .


TheN other guitar plays this riff above:
|------------------------------------------------------------------------------------------|
|-------14b~~~~~------------------------12-------12-------12----12-------12----------------|
|-------14b~~~~~--14p12-----------------12-------12-------12----12-------12-------14-[12]--|
|-12h14-----------------14-14~~---12h14----14-14----14-14----14----14-14----14-14----------|
|------------------------------------------------------------------------------------------|
|------------------------------------------------------------------------------------------|



VERSE:

|----------------------------------|----------------------------------|
|----------------------------------|----------------------------------|
|--------------------5---5---5-----|------------------------0-----0---|
|-2---2---2----------5---5---5-----|-2---2---2------------2-----0---0-|
|-2---2---2----------3-x-3-x-3-3h5-|-2---2---2----------3-----3-------|
|-0-0-0-0-0-0-0-0-0----------------|-0-0-0-0-0-0-0-0-0----------------|
  . .   .   . . . .                    .   .   . . . .


|------------------------------------| 
|------------------------------------|
|--------------------5--5-7~---------|
|-2---2---2----------5--5-7~-7~------|
|-2---2---2----------3--3-5~-7~------|
|-0-0-0-0-0-0-0-0-0----------5~-3-2--| 
    .   .   . . . .



PRE-CHORUS:

|-----------------------------------|------------------| 
|-----------------------------------|------------------|
|------5----5-----3---5-----5---5---|-----8^--7-5---5--|
|------5----5-----3---5-----5---5---|-5---8^--7-5---5--|
|-3-33-3-33-3-3-3-3-3-3-3-3-3-3-3-3-|-5-------------3--|
|-----------------------------------|-3----------------|


|-----------------------------------|------------------| 
|-----------------------------------|------------------|
|------5----5-----3---5-----5---5---|-----9--7-7-7-7-7-|
|------5----5-----3---5-----5---5---|-5---9--7-7-7-7-7-|
|-3-33-3-33-3-3-3-3-3-3-3-3-3-3-3-3-|-5---7--5-5-5-5-5-|
|-----------------------------------|-3----------------|



CHORUS:

|---------------------------------|--------------|
|---------------------------------|--------------|
|-----2----------2--5-----5-----5-|-------9--7---|
|-----2---2~--5--2--5-----5-----5-|-5--7--9--7---|
|-----0---2~--5--0--3-3-3-3-3-3-3-|-5--7--7--5---|
|-0-3---3-0~--3-------------------|-3--5---------|
                      . .   . .

|---------------------------------|-----------------------|
|---------------------------------|-----------------------|
|-----2----------2--5-----5-----5-|-------7-7-7-7-7-7-7-7-|
|-----2---2~--5--2--5-----5-----5-|-5--7--7-7-7-7-7-7-7-7-|
|-----0---2~--5--0--3-3-3-3-3-3-3-|-5--7--5-5-5-5-5-5-5-5-|
|-0-3---3-0~--3-------------------|-3--5------------------|
                      . .   . .





|----------------------------|
|----------------------------|
|----------------------------|
|-----------------7~-5-------| x 2
|-----------------7~-5-------|
|-3-0-0-3-0-0-3-0-5~-3-5-3-0-|




VERSE:

|----------------------------------|----------------------------------|
|----------------------------------|----------------------------------|
|--------------------5---5---5-----|------------------------0-----0---|
|-2---2---2----------5---5---5-----|-2---2---2------------2-----0---0-|
|-2---2---2----------3-x-3-x-3-3h5-|-2---2---2----------3-----3-------|
|-0-0-0-0-0-0-0-0-0----------------|-0-0-0-0-0-0-0-0-0----------------|
  . .   .   . . . .                    .   .   . . . .

[ Tab from: http://www.guitaretab.com/k/kane-roberts/88693.html ]
|------------------------------------| 
|------------------------------------|
|--------------------5--5-7~---------|
|-2---2---2----------5--5-7~-7~------|
|-2---2---2----------3--3-5~-7~------|
|-0-0-0-0-0-0-0-0-0----------5~-3-2--| 
    .   .   . . . .



PRE-CHORUS:

|-----------------------------------|------------------| 
|-----------------------------------|------------------|
|------5----5-----3---5-----5---5---|-----8^--7-5---5--|
|------5----5-----3---5-----5---5---|-5---8^--7-5---5--|
|-3-33-3-33-3-3-3-3-3-3-3-3-3-3-3-3-|-5-------------3--|
|-----------------------------------|-3----------------|


|-----------------------------------|------------------| 
|-----------------------------------|------------------|
|------5----5-----3---5-----5---5---|-----9--7-7-7-7-7-|
|------5----5-----3---5-----5---5---|-5---9--7-7-7-7-7-|
|-3-33-3-33-3-3-3-3-3-3-3-3-3-3-3-3-|-5---7--5-5-5-5-5-|
|-----------------------------------|-3----------------|



CHORUS:

|---------------------------------|--------------|
|---------------------------------|--------------|
|-----2----------2--5-----5-----5-|-------9--7---|
|-----2---2~--5--2--5-----5-----5-|-5--7--9--7---|
|-----0---2~--5--0--3-3-3-3-3-3-3-|-5--7--7--5---|
|-0-3---3-0~--3-------------------|-3--5---------|
                      . .   . .

|-----------------------------------|------------------| 
|-----------------------------------|------------------|
|------5----5-----3---5-----5---5---|-----9--7-7-7-7-7-|
|------5----5-----3---5-----5---5---|-5---9--7-7-7-7-7-|
|-3-33-3-33-3-3-3-3-3-3-3-3-3-3-3-3-|-5---7--5-5-5-5-5-|
|-----------------------------------|-3----------------|



SOLO RIFF:

|-----------------------------------------------|
|-----------------------------------------------|
|-5-----7---------5-----7-----7/8\7-5-----------|
|-5-----7---------5-----7-----7/8\7-5-----------|
|-3-0-0-5-0-0-0-0-3-0-0-5-0-0-------------------|
|-----------------------------------------------|
    . .   . . . .   . .   . .

|-------------------------------------|
|-------------------------------------|
|-5-----7-----------------------------|
|-5-----7-----------------------------|
|-3-0-0-5-0-0-0-0-0-5-5-5-5-4-3-2-----|
|-------------------3-3-3-3-2-1-0-----|
    . .   . . . . .


PRE-CHORUS:

|-----------------------------------|------------------| 
|-----------------------------------|------------------|
|------5----5-----3---5-----5---5---|-----8^--7-5---5--|
|------5----5-----3---5-----5---5---|-5---8^--7-5---5--|
|-3-33-3-33-3-3-3-3-3-3-3-3-3-3-3-3-|-5-------------3--|
|-----------------------------------|-3----------------|


|-----------------------------------|------------------| 
|-----------------------------------|------------------|
|------5----5-----3---5-----5---5---|-----9--7-7-7-7-7-|
|------5----5-----3---5-----5---5---|-5---9--7-7-7-7-7-|
|-3-33-3-33-3-3-3-3-3-3-3-3-3-3-3-3-|-5---7--5-5-5-5-5-|
|-----------------------------------|-3----------------|


BREAK:


|-----------------------|-3-----5/7\5-----------|
|-----------------------|-3-----------5---------|
|-----2----------2--5~--|-0--5----------6-------|
|-----2---2~--5--2--5~--|-0--5------------------| X 2
|-----0---2~--5--0--3~--|----3------------------|
|-0-3---3-0~--3---------|-3---------------------|
  . .   .

|-----------------------------------|------------------| 
|-----------------------------------|------------------|
|------5----5-----3---5-----5---5---|-----9--7-7-7-7-7-|
|------5----5-----3---5-----5---5---|-5---9--7-7-7-7-7-|
|-3-33-3-33-3-3-3-3-3-3-3-3-3-3-3-3-|-5---7--5-5-5-5-5-|
|-----------------------------------|-3----------------|
  . .   .  

|---------------------------------|--------------|
|---------------------------------|--------------|
|-----2----------2--5-----5-----5-|-------9--7---|
|-----2---2~--5--2--5-----5-----5-|-5--7--9--7---|
|-----0---2~--5--0--3-3-3-3-3-3-3-|-5--7--7--5---|
|-0-3---3-0~--3-------------------|-3--5---------|
                      . .   . .

|-----------------------------------|------------------| 
|-----------------------------------|------------------|
|------5----5-----3---5-----5---5---|-----9--7-7-7-7-7-|
|------5----5-----3---5-----5---5---|-5---9--7-7-7-7-7-|
|-3-33-3-33-3-3-3-3-3-3-3-3-3-3-3-3-|-5---7--5-5-5-5-5-|
|-----------------------------------|-3----------------|




|----------------------------|
|----------------------------|
|----------------------------|
|-----------------7~-5-------| x 4
|-----------------7~-5-------|
|-3-0-0-3-0-0-3-0-5~-3-5-3-0-|




Then play the chorus rif to the end, and fades.
Related for You Always Want It tab