Song name
# A B C D E F G H I J K L M N O P Q R S T U V W X Y Z

Kane - Taurus Hangin On tab

hello,

this is (i think)the correct version the song 'Taurus (hangin' on)but for now intro only 
a very little bit of the solo.Parts 1 and 2 needs to be played with wah-effect, part 3 
distortion.

{part 1}
-----------------------|
-----------------------|
--9-7-6-7-6------------|
------------7---5--7-7-|
--------------7--------|
-----------------------|

{part 2}
------------------------------|
------------------------------|
------------------------------|
-----5-7-8-7-5---5-7----------|
--7------------7-----7--5-4---|
----------------------------5-|

{little bit of the solo}

--13-10--12-----9-10-9---------|
-------------10--------10-8----|
----------------------------9--|
-------------------------------|
-------------------------------|
-------------------------------|

I hope you like this.I found this all by myself and i'm pretty confident it's the 
right way to play.
Tap to rate this tab
 
# A B C D E F G H I J K L M N O P Q R S T U V W X Y Z