Song name
# A B C D E F G H I J K L M N O P Q R S T U V W X Y Z

Kano - Typical Me tab

“Typical Me” - Kano
Tabbed by Jason T. Sanford
Atlanta, GA
09-30-2007
jasonsanf@gmail.com


- = 16th of a beat

w/ distortion

Intro Riff

E--|----------------------------------------------------------------||----|
B--|----------------------------------------------------------------||----|
G--|9-9-9-9-------------------------------------------------------9-||----|
D--|9-9-9-9-----------------------------------------------------7---||----|
A--|7-7-7-7----10-9-10-9----10-9----7-7-7-7-7-7-9-9-9-9-9-9-6-9-----||----|
E--|----------- 8-7- 8-7---- 8-7----5-5-5-5-5-5-7-7-7-7-7-7---------||----|

             PM--------------------------------------------|


Verse Riff

E--|------------------------------------------------------------------------|
B--|------------------------------------------------------------------------|
G--|9-9-9-9-------------------------9-9-9-9-----------------------9-9-9-9-9-|
D--|9-9-9-9-------------------------9-9-9-9---------------------7---9-9-9-9-|
A--|7-7-7-7----10-9-10-9----10-9----7-7-7-7----10-9-10-9----6-9-----7-7-7-7-|
E--|----------- 8-7- 8-7---- 8-7--------------- 8-7- 8-7--------------------|

             PM-----------------|             |---------|

E--|-------------------------------------------------------||---------------|
B--|-------------------------------------------------------||---------------|
G--|-----------------------------------------------------9-||---------------|
D--|---------------------------------------------------7---||---------------|
A--|--10-9-10-9----10-9----7-7-7-7-7-7-9-9-9-9-9-9-6-9-----||---------------|
E--|-- 8-7- 8-7---- 8-7----5-5-5-5-5-5-7-7-7-7-7-7---------||---------------|

    PM--------------------------------------------|
Tap to rate this tab
 
# A B C D E F G H I J K L M N O P Q R S T U V W X Y Z