Song name
# A B C D E F G H I J K L M N O P Q R S T U V W X Y Z

Kansas - Carry On Wayward Son Ver 5 tab

Carry on Wayward son
Riff 1:   (intro)
e|-----------------------------------------------|
B|-----------------------------------------------|
G|-----------------------------------------------|
D|-------------------------5---------------------|	X2
A|-------3~--------5~--5/7---7/5-3--5----5-------|
E|-5-3-5-----5-3-5--------------------3~---2~----|
Riff 2:
e|---------------------------------------------|
B|---------------------------------------------|
G|---------12-12~-----------------------14-12~-|
D|--2-2----12-12~----------5------2-2---14-12~-|
A|--2-2------------------5---5-7--2-2----------|
E|--0-0--------------5-7----------0-0----------|
		   PM.............
e|---------------------------------------------|
B|---------------------------------------------|
G|---------------------------------------------|	X2
D|--------5------------------------------------|
A|------5---5-7--------------------------------|
E|--5-7----------------------------------------|
  PM............
Solo 1:
e|-----------------------------------------------|
B|-----------------------------------------------|
G|--5~---7b9-5-----------------------------------|
D|--5~-----------7p5-----------------------------|
A|-------------------7p5---5b6r5b6r5-------------|
E|-----------------------8-----------------------|

e|-----------------------------------------------|
B|-----------------------------------------------|
G|-----------------------------------------------|
D|-----10p7p5-10p7p5-10p7p5-10p7p5-10p7p5-10p7p5-|
A|--10-------------------------------------------|
E|-----------------------------------------------|

e|-----------------17p15----17p15---20p17p15-----|
B|--------15b17-17-------17------17--------------|
G|-/17-------------------------------------------|
D|-----------------------------------------------|
A|-----------------------------------------------|
E|-----------------------------------------------|

e|-17p15-----------------------------------------|
B|-------17-15----15b17r15b17r15-----------------|
G|-------------17---------------------14p12------|
D|---------------------------------14-------14---|
A|-----------------------------------------------|
E|-----------------------------------------------|

e|-----------------------------------------------|
B|-----------------------------------------------|
G|-14p12-----------------------------------------|
D|-------14-14p12p10-12-10~----------------------|
A|-----------------------------------------------|
E|-----------------------------------------------|


e|------22b24-22b24------------------22b24-22b24|
B|----------------------------------------------|
G|---------12-12~-----------------------14-12~--|
D|--2-2----12-12~----------5------2-2---14-12~--|
A|--2-2------------------5---5h7--2-2-----------|
E|--0-0--------------5h7----------0-0-----------|

e|---------------------------------------------|
B|---------------------------------------------|
G|---------------------------------------------|
D|--------5------------------------------------|
A|------5---5-7--------------------------------|
E|--5-7----------------------------------------|
  PM............
Tap to rate this tab
# A B C D E F G H I J K L M N O P Q R S T U V W X Y Z