Song name
# A B C D E F G H I J K L M N O P Q R S T U V W X Y Z

Kansas - Lonely Street tab

----------------------------------------------------------------------------
			 Lonely Street - Kansas
----------------------------------------------------------------------------

Verse 1 x2
E---------------------------------------------------------------------------|
B---------------------------------------------------------------------------|
G-----------------------------9---7-----------------------------------------|
D-----------------------------9---7-----------------------------------------|
A------------/7---7-----------7---5-----------/7---7-----------7---5--------|
E-----0---0-----------0---0-----------0---0------------0---7-----------3----|

E---------------------------------------------------------------------------|
B---------------------------------------------------------------------------|
G-----------------------------5---4---7----7---7---7------------------------|
D-----------------------------5---4---7----7---7---7------------------------|
A------------/7---7-----------3---2---5----5---5---5-------3---2------------|
E-----0---0-----------0---0----------------------------0--------------------|

Chorus (chords)

A G F G

Verse 2
E---------------------------------------------------------------------------|
B---------------------------------------------------------------------------|
G-----------------------------9---7-----------------------------------------|
D-----------------------------9---7-----------------------------------------|
A------------/7---7-----------7---5-----------/7---7-----------7---5--------|
E-----0---0-----------0---0-----------0---0------------0---7-----------0----|

E---------------------------------------------------------|
B---------------------------------------------------------|
G---------------------------------------------------------|
D---------------------------------------------------------|    Drum fill
A-----------------2---3~~~---3---2----------/7---7--------|
E-----3~~~3---5----------------------0---0-----------0----|

Repeat Verse 1 x2
Repeat Chorus
Repeat Verse 2

Solo (chords)

A G A F E - F# D B C
Tap to rate this tab
 
# A B C D E F G H I J K L M N O P Q R S T U V W X Y Z