Kansas - Hold On tab

-------------------------------------------------------------------------------
			     Hold On - Kansas
-------------------------------------------------------------------------------
Tabbed by: Nate Kankiewicz
Email: astrofizical@yahoo.com

This is the solo from the middle of the song, right around 2:00 minutes in.  If there is
wrong, let me know. This is my first tab.  The first note is 12 prebent up to 15 to
the solo.  The second prebent 12 to 15 bends back down to twelve.  There are two 
at the end of the solo    ( 151715 and 121412 ).

Tuning: Standard

e|---------------------------------------------------------------------------|
B|---------------------------------------------------------------------------|
G|---------------------------------------------------------------------------|
D|---------------------------------------------------------------------------|
A|------12pb15---12-p10-12pb15b---12-10-12-7------7--h9----------------------|
E|---------------------------------------------------------------------------|

e|-------------------------------------------------------------------5-------|
B|---10--8-------------------------------------------------------5-8---------|
G|-----------9-7-9-7-5---------------------------------------5-7-------------|
D|---------------------7-5----------------------5-7-5----5-7-----------------|
A|-------------------------7-5-3-0------0-3-5-7------------------------------|
E|---------------------------------------------------------------------------|

e|---5-7-8-5-7-8-10-8-10-8--12----10----10-----------------------------------|
B|-----------------------------------13----13-----10--13---------------------|
G|---------------------------------------------------------------------------|
D|---------------------------------------------------------------------------|
A|---------------------------------------------------------------------------|
E|---------------------------------------------------------------------------|

e|---17---15-----------------------------------------------------------------|
B|-----------18-17-18-17-15--------------------------------------------------|
G|--------------------------17-19-17-14--------------------------------------|
D|--------------------------------------17-14--------------------------------|
A|--------------------------------------------17--15-17b19b17-15-------------|
E|---------------------------------------------------------------------------|

e|---------------------------------------------------------------------------|
B|---------------------------------------------------------------------------|
G|---------------------------------------------------------------------------|
D|---------------------------------------------------------------------------|
A|----15--17--151715--14--121412-11---11--12--14--12-------------------------|
E|---------------------------------------------------------------------------|


************************************

| /   slide up
| \   slide down
| h   hammer-on
| p   pull-off
| ~   vibrato
| +   harmonic
| x   Mute note
| b   Bend
| pb  Pre-bend
| br  Bend release
| pbr Pre-bend release
| brb Bend release bend

************************************
Tap to rate this tab
 
# A B C D E F G H I J K L M N O P Q R S T U V W X Y Z