Song name
# A B C D E F G H I J K L M N O P Q R S T U V W X Y Z

Kansas - Carry On My Wayward Son. tab

Help us improve GuitareTab! Take a short survey!
E -----------------------------------------------------------------------------------   
B ------------------------------------------------------------------------------------
G ------------------------------------------------------------------------------------
D -----------------------------------5--------------------------------------------------
A ----------3--------------5---5\7--------7\5----3----5-------5------------
E --5--3--5-------5--3--5---------------------------------3-------2----------------------
            REPEAT
AFTER THE SECOND TIME
E ------------------------------------------------------------------------------
B -----------------8--8-----------------------------------------------------------
G --1-1------------7--7------------------------------------------------------------
D --2-2------------6--6-------------------------5------------------------------------
A --2-2------------7--7--------------------5--7-----5---7----7--7-------------
E ----------------------------------0h5--7-------------------0--0---------------------   

E -----9----9---------------------------------------------------------
B ----10---10------------------------------------------8----8-----------
G -----9----9------------------------------------------7----7------------
D ----11---11--------------------5---------------------6----6--------------5---
A ------------------------5---7-------5--7-----7-7-----7----7---------5--7---5--7--7--7-
E ----------------0h5--7-----------------------0-0----------------0h5--------------0--0---
E ---9---9---------                   The chords are Am, G, F, G, REPEAT
B --10---10--------                   Then they are Dm, C, Bflat, Dm, C and G  
G ---9----9--------
D --11---11--------                           I hope this helps, sorry about any
A -----------------                           confusion, but this is my first time  
E -----------------                           doing this, so let me know what you think.
                                              
                                                                           Daniel
Related for Carry On My Wayward Son. tab