Song name
# A B C D E F G H I J K L M N O P Q R S T U V W X Y Z

Kansas - Carry On My Wayward Son Acoustic tab

Kansas-Carry on my wayward son acoustic version

      -----------------------------------------|
      -----------------------------------------|
part1:-2--------2------2---0-------------------|x2
      -2----2-2-2----2-0-2---2-0---0---0-------|
      ------0-3------0-----------3-------------|
      ---3---------3-----------------3---2-----|



      ------3-3--------3------------5-3--------3-----------|
      ------3-3---------------------5-3--------------------|
part2:-----------------------------------------------------|
      -2-2-----------0----0-2--2-2-----------0----0-2------|x2
      -2-2-------0-2-----------2-2-------0-2---------------|
      -0-0---------------------0-0-------------------------|


Continue with part1 two times through the solo, and then continue with part2.
Then comes the verse.
Tap to rate this tab
 
# A B C D E F G H I J K L M N O P Q R S T U V W X Y Z