Song name
# A B C D E F G H I J K L M N O P Q R S T U V W X Y Z

Kansas - Dust In The Wind tab

Kansas 
Dust in the Wind - Solo
Album "Point of Know Return" 1978 

Tuning: normal

Solo: [originally played by a violin]
=====
e|----------|--------------------------7--8--10--|-------------------------|
B|--5~~~~~--|-------------------8--10------------|-------------------6--8--|
G|----------|--7--5--4--5--7---------------------|--5--4-----4--5----------|
D|----------|------------------------------------|--------7----------------|
A|----------|------------------------------------|-------------------------|
E|----------|------------------------------------|-------------------------|
                      
e|--5--7--8----7--5----7--8--7--5-----5--------------|---------------------|
B|---------------------------------8-----8--5-----5--|-------------------8-|
G|---------------------------------------------7-----|--7--5--4--5--7------|
D|---------------------------------------------------|---------------------|
A|---------------------------------------------------|---------------------|
E|---------------------------------------------------|---------------------|
                                                                                
e|------7--8--10--|-------------------------5--7--8----7--5-|--------------|
B|--10------------|-------------------6--8------------------|--12--13--12--|
G|----------------|--5--4-----4--5--------------------------|--------------|
D|----------------|--------7--------------------------------|--------------|
A|----------------|-----------------------------------------|--------------|
E|----------------|-----------------------------------------|--------------|

e|--------------10--12--13--15--|----15----15--17--15------15--------------|
B|--10--12--13------------------|----------------------18------18--17--18--|
G|------------------------------|------------------------------------------|
D|------------------------------|------------------------------------------|
A|------------------------------|------------------------------------------|
E|------------------------------|------------------------------------------|
                                                                                
e|----------------------------------|--------------------------------------|
B|--17--15--17--15------15----------|--------------------------15--17------|
G|------------------17------17--16--|--14--16--17--14--16--17----------17--|
D|----------------------------------|--------------------------------------|
A|----------------------------------|--------------------------------------|
E|----------------------------------|--------------------------------------|
                                                                                
e|--------------------------17--15----15--|-15--17--15------15-------------|
B|--15--17------15--17--18----------------|-------------18------18--17--18-|
G|----------17----------------------------|--------------------------------|
D|----------------------------------------|--------------------------------|
A|----------------------------------------|--------------------------------|
E|----------------------------------------|--------------------------------|
                                                                                
e|--------------------------------------------|
B|--17--15--17--15------15--------------------|
G|------------------17------17--16--14----14--|
D|--------------------------------------------|
A|--------------------------------------------|
E|--------------------------------------------|



 --------------------
| h   hammer-on      |
| p   pull-off       |
| b   bend           |
| r   bend release   |
| s   slide up/down  |
| ~   vibrato        |
 --------------------


#PlaceForTab

Tabbed by: OfirG

please rate
                                                                                
Tap to rate this tab
# A B C D E F G H I J K L M N O P Q R S T U V W X Y Z