Song name
# A B C D E F G H I J K L M N O P Q R S T U V W X Y Z

Kansas - Two Cents Worth tab

   Kansas - Two Cents Worth

tacet = don't play during that section
b = bend
r = release bend
h = hammer on
p = pulloff
~ = vibrato

C5 = 8 10 10 x x x  ( tilt head clockwise to read )

o        o   =  repeat sign
o        o


 [Intro]  00:07

|--------------------------------------------------------|
|--------------------------------------------------------|
|o--------8-10b12-8-10b12~-----8-10b12-8-10b12r10p8-----o|
|o----10-------------------10-----------------------8~--o|
|--------------------------------------------------------|
|--------------------------------------------------------|


|-----------------------------------------------------|
|-----------------------------------------------------|
|-12---------8h10p8----10b12--------8-----------------|
|----8h10p8--------10-------8h10p8---8h10p8-----------|
|--------------------------------------------8-10~----|
|-----------------------------------------------------|


 [Verse]  you can play this if you want, but there is really no guitar

 C5 //      //      //      //      //     //      //      //


 [Chorus]

 guitar tacet

  [Bridge]

|-------------------------------------------------------------------------|
|-------------------------------------------------------------------------|
|o-------------------------------------------8---------------------------o|
|o--10-10--------10-10----------------8--10------8--10-------8-----------o|
|---10-10--------10-10----------8--10---------------------8-----8--10-----|
|---8--8---------8--8--------8----------------------------------------10--|


|-------------------------------------------------------------------------|
|-------------------------------------------------------------------------|
|o-------------------------------------------10--------------------------o|
|o-12-12--------12-12-----------------10--12----10--12------10-----------o|
|--12-12--------12-12----------10--12-------------------10------10--12----|
|--10-10--------10-10------10------------------------------------------12-|


  Song Order

Intro x1

Verse x1

Chorus ( guitar tacet )

Verse x1

Chorus ( guitar tacet )

Bridge x1

Intro x1

Verse x1

Chorus ( tacet )

Outro ( tacet )
Tap to rate this tab
 
# A B C D E F G H I J K L M N O P Q R S T U V W X Y Z