Song name
# A B C D E F G H I J K L M N O P Q R S T U V W X Y Z

Kanteen - Ayaw Palabi tab

Band/Artist: Kanteen
Song: Ayaw Palabi
Tabbed by: L.G.T

Intro:
                
e|--------------0-----------0--|
B|-----------1-----------1-----|
G|--------0-----------2--------| (repeat 2 times)
D|-----2-----------3-----------|
A|--3--------------------------|
E|-----------------------------|


Verse 1:
e|-----------0-----------0-----------0----------0----|
B|--------1-----------1-----------1----------1-------|
G|-----0-----------0-----------2----------2----------|
D|-------------------------------------2-------------|
A|--3-----------2-----------0------------------------|
E|---------------------------------------------------|
   C           C/B         Am         
      Dili  tanan akong   masabtan
   
e|-----------1----------------1----------3-----1-----|
B|--------3---------------1--------------0-----0-----|
G|-----2--------------2---------------0-----0--------|
D|--0------------------------------------------------|
A|---------------------------------------------------|
E|-----------------1---------------3-----------------|
   Dm              F               G
  Taas man ko’g pasensya apan may utlanan

e|-----------0--------------0-------------0------0---|
B|--------1--------------1-------------1-------1-----|
G|-----0--------------0-------------2--------2-------|
D|----------------------------------------2----------|
A|--3--------------2-------------0-------------------|
E|---------------------------------------------------|
    C              C/B          Am     
      Di tana’ng kasakit akong antuson

e|-----------1--------------1-------3-----1----------|
B|--------3--------------1----------0-----0----------|
G|-----2--------------2----------0-----0-------------|
D|--0------------------------------------------------|
A|---------------------------------------------------|
E|-----------------1----------3----------------------|
   Dm              F          G
 Bisan pa sa gugma mo ako ulipon


Refrain:
e|-----------1--------3------------------------0-----|
B|--------1-----------0----------------------1-------|
G|-----2------------0---0-----------------2----------|
D|----------------------------2-----0----------------|
A|-------------------------3-----2-----0-------------|
E|--1------------3-----------------------------------|
    F            G         C    C/B    Am
     Apan ayaw kalimti nga ako wa pa mahigti
e|-----------1--------3------------------------0-----|
B|--------1-----------0----------------------1-------|
G|-----2------------0---0-----------------2----------|
D|----------------------------2-----0----------------|
A|-------------------------3-----2-----0-------------|
E|--1------------3-----------------------------------|
    F            G         C    C/B    Am
      Plano pa  lang nga ikaw akong pakaslan

e|-----------1--------3----------------------------0--|
B|--------1-----------0--------------------------1----|
G|-----2-----------0-----0---------------------2------|
D|--------------------------------2-------0-----------|
A|---------------------------3---------2-----0--------|
E|--1-----------3-------------------------------------|
    F           G            C        C/B    Am
       Dili   ako mahaylo sa imung pag ngisi-ngisi

e|-----------1--------3--------------0----------3---1-|
B|--------1-----------0-----------1----1--------0---0-|
G|-----2-----------0-----0------0--------0----0---0---|
D|---------------------------(2)----------------------|
A|--------------------------3-------------------------|
E|--1------------3--------------------------3---------|
    F            G          C               G
      Basin   unya ako’g mapul-an


Chorus:
e|------------------------------0--------------------|
B|----------------------------1-------1--------------|
G|---------0----------------2-------2----------------|
D|-------2----------0-------------2------------------|
A|-----3-----3--2-----2--0---------------------------|
E|---------------------------------------------------|
       C        C/B      Am
Ayaw’g pa labi day kay uyab ra ta

e|------------1----------0----------3----1-----------|
B|---------3----------1-------------0----0-----------|
G|------2----------2-------------0----0--------------|
D|----0----------------------------------------------|
A|---------------------------------------------------|
E|--------------1--------------3---------------------|
     Dm         F              G
Basin nya’g mabiya-an kang mag inusara

e|------------------------------0--------------------|
B|----------------------------1-------1--------------|
G|---------0----------------2-------2----------------|
D|-------2----------0-------------2------------------|
A|-----3-----3--2-----2--0---------------------------|
E|---------------------------------------------------|
       C        C/B      Am
Ayaw’g palabi day sa mga sugo mo

e|------------1---------0-------3---1--------------|
B|---------3---------1----------0---0--------------|
G|------2----------2---------0----0----------------|
D|----0--------------------------------------------|
A|-------------------------------------------------|
E|--------------1---------3------------------------|
      Dm        F         G
Kay duna pud ako’y kaugali..ngong         

e|---------------------------0-------------1-1h3--1----3---1-|
B|-------------------------1------1------3-----(2)-----0---0-|
G|-------0---------------2------2------2-------------0---0---|
D|-----2----------0-----------2------0-----------------------|
A|---3-----3--2-----2--0-------------------------------------|
E|-------------------------------------------------3---------|
     C       C/B       Am            Dm            G
     Guuuss.. to

Verse 2:
(Same plucking on verse 1)

C       C/B       Am
 Tinuod nga ako buotan
   Dm          F                 G
 Di na halos mutingog kung imung singhagan
C       C/B        Am
 Apan baya ayaw panganti
   Dm          F                G
 Timan-e lang inday nga ako lalaki

Refrain 2:
(Same plucking on refrain 1)

F            G         C    C/B    Am
 Busa ayaw kalimti nga ako wa pa mahigti
F           G         C    C/B    Am
 Plano pa lang nga ikaw akong pakaslan
F           G            C        C/B    Am
  Dili   ako mahaylo sa imung pag ngisi-ngisi
F            G          C          G
  Basin   unya ako’g mapul-an

(Repeat Chorus 2 times)

Outro:
(In this part do the struming)

       C        C/B      Am
Ayaw’g pa labi day kay uyab ra ta
     Dm         F              G
Basin nya’g mabiya-an kang mag inusara
       C        C/B      Am
Ayaw’g palabi day sa mga sugo mo
      Dm        F         G
Kay duna pud ako’y kaugalingong         
  C     C/B    Am
Gusto
      Dm        F         G
Kay duna pud ako’y kaugalingong         
  C   
Gusto


Chords used:
C   x32010
C/B x20010
Am  x02210
Dm  xx0231
F   133211
G   320003

Submitted on 04/25/2012-8:27 AM 
Tap to rate this tab
# A B C D E F G H I J K L M N O P Q R S T U V W X Y Z