Song name
# A B C D E F G H I J K L M N O P Q R S T U V W X Y Z

Kanye West - Paranoid tab

-------------------------------------------------------------------------------
			     PARANOID - Kanye West
-------------------------------------------------------------------------------


Tuning:Standard

e|------------------------------1-1-1-------------4-4-4-1-1-1-----2-2-2---------|
B|------------------------------------2-2-2-------------------2-2-------4-4-4---|
G|------------------------------------------3-3-3-------------------------------|
D|------------------------------------------------------------------------------|
A|------------------------------1-1---1-1-1-1-1-1-1-1-1-1-1-1-1-1-2-2-2-2-2-2---|
E|--2-2-2-2-2-2-2-2-2-2-2-2-2-2-------------------------------------------------|

e|-------6-6-6-4-4-2-2----------------------------------------------------------|
B|------------------------------------------------------------------------------|
G|-4-4-4------------------------------------------------------------------------|
D|------------------------------------------------------------------------------|
A|-2-2-2-2-2-2-2-2-2-2----------------------------------------------------------|
E|------------------------------------------------------------------------------|

Tap to rate this tab
 
# A B C D E F G H I J K L M N O P Q R S T U V W X Y Z