Song name
# A B C D E F G H I J K L M N O P Q R S T U V W X Y Z

Kanye West - Flashing Lights tab

Listen to song for strum pattern

Verse:

e------------------------------|
B---4--------------------------|
G---5----5---------------------|
D---5----6---------------------|
A---3----6---------------------|
E--------4---------------------|  x2

Then

Synth Riff:

e--------------------------|
B--------------------------|
G----11----12--13----------|
D----12----13--14----------|
A----12----13--14----------|
E----10----11--12----------| x4

Back to Verse


Strumming pattern is tricky on the synth riff, but you can pretty much jam on it and 
it sound good.
Tap to rate this tab
# A B C D E F G H I J K L M N O P Q R S T U V W X Y Z