Song name
# A B C D E F G H I J K L M N O P Q R S T U V W X Y Z

Kanye West - All Of The Lights tab

Interlude is accompanied by Cello, this is the piano part played on the guitar
Standard tuning, Enjoy.


 -6--1-2-6--2-4--1------------1-2-6--2-4--1-------|
 --------4--2-2----4-------6------4--2-2-------4--|
 ------------------5---------------------------5--|
 ------------------6-------8-------------------6--|
 -------------------------------------------------|
 -------------------------------------------------|


 ------9---4----------11-8--------------------------|
 -2------6-----------------11-11-9----9-------------|
 -3---------------3----------------11---11-10-------|
 -3---------------4---------------------------------|
 -1---------------4---------------------------------|
 -----------------2---------------------------------|


 ------9---4----------11-8--------------------------6--|
 -2------6-----------------11-11-9----9----------------|
 -3---------------3----------------11---11-10--8-------|
 -3---------------4------------------------------6--8--|
 -1---------------4---------------------------------10-|
 -----------------2------------------------------------|


 ----1-2-6--2-4--1-------|
 -6------4--2-2-------4--|
 ---------------------5--|
 -8-------------------6--|
 ------------------------|
 ------------------------|


 ------9---4----------11-8--------------------------|
 -2------6-----------------11-11-9----9-------------|
 -3---------------3----------------11---11-10-------|
 -3---------------4---------------------------------|
 -1---------------4---------------------------------|
 -----------------2---------------------------------|


 ------9---4----------11-8--------------------------6--|
 -2------6-----------------11-11-9----9----------------|
 -3---------------3----------------11---11-10--8-------|
 -3---------------4------------------------------6--8--|
 -1---------------4---------------------------------10-|
 -----------------2------------------------------------|
Tap to rate this tab
 
# A B C D E F G H I J K L M N O P Q R S T U V W X Y Z